tablaturas, partituras y acordes para guitarra
Busca por banda/artista:
 
y/o título de la canción:
A B C D E F G H I J K L M N O P Q R S T U V W X Y Z 0 1 2 3 4 5 6 7 8 9 / Top 100 tabs
Categorías
Usuarios
usuario:
Darse de alta
password:
Artistas más visitados
Publicidad
TOP acordes y tablaturas de The beatles
Páginas amigas


Estás en: Inicio > Letra T > Acordes y tablaturas de The beatles > And i love her
And i love her
de The beatles
Puntúa este acorde/tab:      
(0.9/5)
Reportar este acorde/tab
  Añadir a tus favoritos
  Imprimir
Intro:
Riff : 
            F#m              E              F#m
e|-------------------------------------------------------------
B|-------------------------------------------------------------
G|-------------------------------------------------------------
D|-------------------------------------------------------------
A|------7--6------------7--6------------7--6-------------------
E|---7--------(b9)-----7--------(b9)-----7--------(b9)---------------
F#m        C#m           F#m           C#m
I give her all my love    That's all I do
F#m        C#m             A             B
And if you saw my love    You'd love her too
   E
I love her
    F#m                          C#m
e|----------(b9)-------------(b9)-----------(b9)----------(b9)---------|
B|------10-----10------10-----10-----(b9)----(b9)----(b9)----(b9)------|
G|--11-------------11-------------(b9)----------(b9)---------------|
D|-------------------------------------------------------------|
A|-------------------------------------------------------------|
E|-------------------------------------------------------------|
           She    gives  me       every     thing
F#m       C#m     F#m           C#m
And tenderly        The kiss my lover brings
    A                           B
e|---------(b9)------------(b9)-------------11---------------------
B|-----10-----10-----10-----10------10------10-----------------
G|--(b9)------------(b9)------------11-----------------------------
D|-------------------------------------------------------------
A|-------------------------------------------------------------
E|-------------------------------------------------------------
          She    brings to      me
                    E
e|----------11------------(b9)----------(b9)----------(b9)-----------
B|------10------10-----(b9)----(b9)----(b9)----(b9)----(b9)----(b9)--------
G|--11--------------(b9)----------(b9)----------(b9)----------(b9)-----
D|-------------------------------------------------------------
A|-------------------------------------------------------------
E|-------------------------------------------------------------
       And  I  love    her
C#m          B      C#m        G#m
A love like ours    could never die
C#m       G#m            B
As long as I   have you near me

F#m             C#m               F#m         C#m
Bright are the stars that shine   Dark is the sky
F#m         C#m             A          B
I know this love of mine   Will never die
        E
And I love her

Solo: 
Gm Dm Gm Dm Gm Dm Bb C F Gm

|--------------------------------------------------------------------------|
|--------------------------------------------------------------------------|
|-------(b9)7/10-10------(b9)9/7-7------(b9)7/10-10-7----------------------------|
|--5-7-8---------5-7-8--------5-7-8-------------8-7-7/5-------5/7----------|
|-----------------------------------------------------5-3-5----------------|
|--------------------------------------------------------------8-5-3-1-1/3-|

Gm              Dm                Gm          Dm
Bright are the stars that shine   Dark is the sky
Gm          Dm              Bb         C
I know this love of mine   Will never die
        F
And I love her

Final:
Gm F Gm D
Toque o Riff da Intro, também uma casa a frente		   
AcordesyTabs.com © 2008 Acordes y Tablaturas para guitarra. Tabs and Chords for guitar. Aviso Legal - Contacto
El uso de este sitio está sujeto a la aceptación de los términos y condiciones (26 usuarios online)