tablaturas, partituras y acordes para guitarra
Busca por banda/artista:
 
y/o título de la canción:
A B C D E F G H I J K L M N O P Q R S T U V W X Y Z 0 1 2 3 4 5 6 7 8 9 / Top 100 tabs
Categorías
Usuarios
usuario:
Darse de alta
password:
Artistas más visitados
Publicidad
TOP acordes y tablaturas de Jesús Adrián Romero
Páginas amigas


Princesas Mágicas
de Jesús Adrián Romero
Puntúa este acorde/tab:      
(1.3/5)
Reportar este acorde/tab
  Añadir a tus favoritos
  Imprimir
Tono original: D

Intro:

         D             A             Bm
e -------------------------------------------------------------
B --7-7-7-7s8-7---5-5-5-5s7-5---3-3-3-3-3s5-3----3-3-----------
G -------------------------------------------------------------
D -------------------------------------------------------------
A -------------------------------------------------------------
E -------------------------------------------------------------

         D                   A              Bm
e -------------------------------------------------------------
B --7-7-10-8-7-5-3------5-5-5-5s7-5---3-3-3-3-3s5-3----3--5s7-5
G -------------------------------------------------------------
D -------------------------------------------------------------
A -------------------------------------------------------------
E -------------------------------------------------------------


D        A/C#               Bm
  Tengo dulces cosas en mi mente
A           G
  Para recortar mi día
        Bm       A
y a mi casa regresar
D             A/C#          Bm
  Son un par de mágicas princesas
A                  G
  con pijamas y con trenzas
Bm                  A
  que juegan a ser mamá
D               A/C#             Bm
  Ya se han dado cuenta que soy débil
A                 G
  Y con sólo una sonrisa
Bm               A
  Pueden todo conseguir
D            A/C#              Bm
  De mi corazón se han vuelto dueńas
A                   G
  y me alegran la existencia
Bm                   A
  con solo en ellas pensar

C#         D             A
  Entre gimnasia y la tarea
G                    Bm
  van creciendo muy deprisa
G         A                  D
Ay Ay Ay    las quisiera detener

C#                        D
  Pero un Día se irán de casa
             G
y entre sus cosas llevarán
    Bm                      A
un pedazo de mi vida que jamás regresará
       D                             G
mientras tanto quiero darles tantas cosas
        Bm                         A
quiero darles tanto amor tanta atención
     D                        G
y enseńarles cada día su importancia, su valor
           Bm   A   G     D    >solo<    A
Quiero cuidarles  el corazón


        D
e --------------10------------------
B --7-8s10-8--7----10---------------
G ----------------------------------  x3   despues A
D ----------------------------------
A ----------------------------------
E ----------------------------------


D            A/C#           Bm
 Son como un jardín en primavera
A                   G
  que se viste cada día
Bm                   A
  de belleza y esplendor
D           A/C#       Bm
 Son como palomas mensajeras
A                      G
  que el seńor mandó del cielo
Bm                A
  para hablarme de su amor


Entre gimnasia y la tarea.......



NOTA: *El acorde A/C# se puede hacer como un F#m
      Solo sonando el bajo de la cuerda 5.



Dios les Bendiga, De parte de todos los hermanos en Cristo.
Saludos a cynthia, mi bb.
		   
AcordesyTabs.com © 2008 Acordes y Tablaturas para guitarra. Tabs and Chords for guitar. Aviso Legal - Contacto
El uso de este sitio está sujeto a la aceptación de los términos y condiciones (23 usuarios online)