tablaturas, partituras y acordes para guitarra
Busca por banda/artista:
 
y/o título de la canción:
A B C D E F G H I J K L M N O P Q R S T U V W X Y Z 0 1 2 3 4 5 6 7 8 9 / Top 100 tabs
Categorías
Usuarios
usuario:
Darse de alta
password:
Artistas más visitados
Publicidad
TOP acordes y tablaturas de Aerosmith
Páginas amigas


Estás en: Inicio > Letra A > Acordes y tablaturas de Aerosmith > Baby Please Dont Go
Baby Please Dont Go
de Aerosmith
Puntúa este acorde/tab:      
(0.8/5)
Reportar este acorde/tab
  Añadir a tus favoritos
  Imprimir
Transcribed by Raphael Mattos (corrections by Rafael Cunha)


Aerosmith - Honkin' On Bobo

Baby Please Don't Go
(Williams)

Intro:

e|-------------15----------|6x
B|-------------15----------|                                            
G|-------912------12/9-----|
D|-------912------12/9-----|
A|-7~-----------------------|
E|-0~-----------------------|

Gtr I and II (lick1)
e|------------------------------------------------------------------------------
B|---------------8-------------------8------------------------------------------
G|-9-9~~-----7/9---97-----------7/9---9-7-9-9~-97-----7-------------------------
D|-------8/9-----------9-8~--8/9--------------------8p7---87-5---5-7-5----------
A|--------------------------------------------------------------7-------7-7--5-7
E|------------------------------------------------------------------------------



Gtr I
e|--------------------------|--------------------------|------------------------
B|--------------------------|--------------------------|------------------------
G|------7-------------------|------7------9-9-9-9------|------7-----------------
D|------7-------------------|------7------9-9-9-9------|------7-----------------
A|------5-------------------|------5------7-7-7-7------|------5-----------------
E|0-------/---0------------|--------/---0------------|--------/---0------------|
               |-----let ring---          |-----let ring---          |-----let r
Gtr II                        
  |----------------------palm mute--------------------|
e|--------------------------|--------------------------|
B|--------------------------|--------------------------|
G|--------------------------|--------------------------|
D|--------------------------|--------------------------|
A|--------------------------|--------------------------|
E|00200020002000200020002000|20002000200020002000200020|  -> riff1 

Verse 1:
  
Gtr I
e|-----------------------------|-------------------------------|
B|-----------------------------|-------------------------------|
G|------------------7-7-7--7---|-------------7h9p7-------------|
D|hold--------------7-7-7--7---|------------------9-7h9p7--9/--|
A|hold--------------9-9-9--9---|-------------------------7-7/--|
E|hold-------------------------|-------------------------------|

GTr II (riff2)
e|-----------------------------|-------------------------------|
B|-----------------------------|-------------------------------|
G|------------------7-7-7--7/--|-------------7---7---7-----7/--|
D|------------------7-7-7--7/--|-------------7---7---7-----7/--|
A|------------------9-9-9--9/--|-------------9---9---9-----9/--|
E|-----------------------------|-------------------------------|
 BABY PLEA' DON'T GO       BABY PLEA' DON'T GO

 BABY PLEASE DON'T GO
 DOWN TO NEW ORLEANS
 YOU KNOW I LOVE YOU SO
 BABY PLEASE DON'T GO

Gtr I

e|----12/---0---12/---0-----|2x
B|----12/---0---12/---------|
G|--------------------------|
D|--------------------------|
A|--------------------------|
E|--------------------------|

Gtr II = riff1

Verse 2

Gtr I                              Gtr II = riff2
e|-----------------------------|------------------------------------------------
B|-----------------------------|------------------------------------------------
G|-----------------------------|-----------------9p7----------------------------
D|---------------------7bf-----|---------------------9-9--7-9p7-8p7-------9/----
A|-----------------------------|------------------------------------10-7--7/----
E|-----------------------------|------------------------------------------------
 WELL YOUR MAN DONE GONE   wELL YOUR MAN DONE GONE
 YEAH YOUR MAN DONE GONE
 DOWN TA COUNTY FARM

e|-----------0--------------|
B|-----------0--------------|
G|-----------0--------------|
D|--------------------------|
A|--------------------------|
E|--------------------------|
 HE GOT THE SCHACKLES ON
 BABY PLEASE DON'T GO AWAY

Gtr I

e|----12/---0---12/---0-----|2x
B|----12/---0---12/---0-----|
G|--------------------------|
D|--------------------------|
A|--------------------------|
E|--------------------------|

Gtr II = riff1

verse 3

Gtr I                         a.h.     Gtr II = riff2
e|------------------------------------|-----------------------------------------
B|------------------------------------|----------------------------9/-----------
G|----------------9p7-----------------|-----------------9p7--------9/-----------
D|----------------9p7--9p8p7--9/------|-----------------9p7-9p8p7-----9/--------
A|--------------------------7-7/------|--------------------------7----7/--------
E|------------------------------------|-----------------------------------------
BEFORE I BE THE DOG                    BEFORE I BE THE DOG   YEAH
BEFORE BEIN' THE DOG
GET YOU'RE WEIGHT OUT HERE
I'LL MAKE YA WALK IT'LL OFF
BABY PLEASE DON'T GO AWAY

Well all right

Gtr I and II (lick1)

E G A C E(7)/

oow
BABY PLEASE DON'T GO
BABY PLEASE DON'T GO
BABY PLEASE DON'T GO
DOWN TO NEW ORLEANS
YOU KNOW I LOVE YOU SO 
                          |-4x-|   
e|--------------------------------|
B|--------------------------------|
G|--------------------7/--7-7-7---|
D|--------------------7/--7-7-7---|
A|--------------------9/--9-9-9---|
E|--------------------------------|
BABY PLEASE DON'T GO

                  |palm mute|
e|--------------------------------|5x
B|---------------------------7----|
G|------------------7-7-7-7--7----|
D|------------------7-7-7-7--7----|
A|------------------9-9-9-9-------|
E|--------------------------------|
Now I feel right now
  My baby's leavin'
  On that midnight train
  And i'm dyin' dyin'
  Dyin' dyin' dyin'
  I'm dyin' i'm dyin' I'm dyin'
e|-----------------------12-------|4x
B|-----------------------12-------|
G|-----------------------13-------|
D|-----------------------14-------|
A|-----------------------14-------|
E|-----------------0-----12-------|
I'm dy-dy-dy-dy-ri-right now
                   right now
                   right now
                   right now

From 12th fret on:
Gtr II
E G A C

Gtr I  (haven't tabbed first part of the solo)                              let 
      e|------------------------------------------------------------------|-----
      B|---15bfp12-15bfp12-15bfp12-15bfp12-15bfp12-15bfp12-15bfp12-15bfp12|-----
      G|------------------------------------------------------------------|-----
      D|------------------------------------------------------------------|-----
      A|------------------------------------------------------------------|-----
      E|------------------------------------------------------------------|-0---
                                                              |----------full be
e|17fbr-17fbr-17fbr-17fbr-17fbr-17fbr-17fbr-17fbr-17fbr-17fbr|17---17-17-17-17-1
B|-----------------------------------------------------------|------------------
G|-----------------------------------------------------------|------------------
D|-----------------------------------------------------------|------------------
A|-----------------------------------------------------------|------------------
E|-----------------------------------------------------------|------------------


Gtr I

e|----12/---0---12/---0-----|4x
B|----12/---0---12/---0-----|
G|--------------------------|
D|--------------------------|
A|--------------------------|
E|--------------------------|

Gtr II = riff1


Gtr I               Gtr II = riff1
e|----------------------|---------------------15p14p12-15p14p12-15p14p12-15p14p1
B|----------------------|-------------------------------------------------------
G|----------------------|-------------------------------------------------------
D|------------------7fb-|-------------------------------------------------------
A|----------------------|-------------------------------------------------------
E|----------------------|-------------------------------------------------------
BABY PLEASE DON'T GO      BABY PLEASE DON'T GO                                  

e|-----15-----12----12----------------------------------------------------------
B|----------------------15---12-15--15--15b--15p12------------------------------
G|-------------------------------------------------------14---14--14-12-1412- 14
D|------------------------------------------------------------------------------
A|------------------------------------------------------------------------------
E|------------------------------------------------------------------------------
  BABY PLEASE DON'T GO  DOWN TA NEW ORLEANS  YOU KNOW I  LOVE YOU SO    BABY  PL

e|--------------------------------|4x
B|--------------------------------|
G|--7-5-5--7--5--7----------------|
D|--7-5-5--7--5--7----------------|
A|--------------------------------|
E|--------------------------------|

YEAH
  yeah
YEAH
  yeah
WELL ALRIGHT ALRIGHT ALRIGHT

Gtr I
e|------------------------------------------------------------------------------
B|---------------8-------------------8------------------------------------------
G|-9-9~~-----7/9---97-----------7/9---9-7-9-9~-97-----7-------------------------
D|-------8/9-----------9-8~--8/9--------------------8p7---87-5---5-7-5----------
A|--------------------------------------------------------------7-------7-7--5-7
E|------------------------------------------------------------------------------

Gtr II
e|-------------------15--------------------------15-----------------------------
B|-17-17~~------15/17--1715----------------15/17--17-15-17-17~-1715-----15------
G|--------15/16--------------16-15~--15/16---------------------------15p14--1514
D|------------------------------------------------------------------------------
A|------------------------------------------------------------------------------
E|------------------------------------------------------------------------------




I'll finish up soon, it needs some tweaks and first part of the solo, for gtr I.

Any corrections and tips:
paddock2@terra.com.br

		   
AcordesyTabs.com © 2008 Acordes y Tablaturas para guitarra. Tabs and Chords for guitar. Aviso Legal - Contacto
El uso de este sitio está sujeto a la aceptación de los términos y condiciones (28 usuarios online)