tablaturas, partituras y acordes para guitarra
Busca por banda/artista:
 
y/o título de la canción:
A B C D E F G H I J K L M N O P Q R S T U V W X Y Z 0 1 2 3 4 5 6 7 8 9 / Top 100 tabs
Categorías
Usuarios
usuario:
Darse de alta
password:
Artistas más visitados
Publicidad
TOP acordes y tablaturas de Aerosmith
Páginas amigas


Dream On
de Aerosmith
Puntúa este acorde/tab:      
(0.2/5)
Reportar este acorde/tab
  Añadir a tus favoritos
  Imprimir

 --------------------------------------------   This Is Dream on Aerosmith
 --------------------------------------------  the intro is correct but im not s
 --------------------------------------------  about below the verse.
 --------------------------------------------
 --0-0-0-0-0-0-0-0-0-0-0-0-0-0---------------
 -3-3-2-2-0-0-2-2-3-3-5-5-7-7-7-5-3----------    Repeat 2x this (INTRO)
   verse
G|------------------------------|-----------------------------|
D|3-------3-------3-------3-----|1-1--------------------------|
A|------13------13------13------|---3-34-43-14343434343434343-|
E|---1-------1-------1-------1--|-----------------------------|

G|-------------------------------------------|
D|3-31-3---1-13-31-3---1-3--33-33-33-33-33-33|
A|------4-4---------4-4----------------------|               
E|------------------------1------------------|

G|----------------------------------------|
D|3-31-3---1-13-31-3---1------------------|
A|------4-4---------4-4--14343434343434343|
E|----------------------------------------|

    chorus
G|-------------------------------|----------------------------------------|
D|---------1-13333-32------------|-----------13-35-56-68------------------|
A|1-13-34-4----------32------0---|1-13-34-41-------------13333333333333333|
E|---------------------32-023-11-|----------------------------------------|


		   
AcordesyTabs.com © 2008 Acordes y Tablaturas para guitarra. Tabs and Chords for guitar. Aviso Legal - Contacto
El uso de este sitio está sujeto a la aceptación de los términos y condiciones (40 usuarios online)