tablaturas, partituras y acordes para guitarra
Busca por banda/artista:
 
y/o título de la canción:
A B C D E F G H I J K L M N O P Q R S T U V W X Y Z 0 1 2 3 4 5 6 7 8 9 / Top 100 tabs
Categorías
Usuarios
usuario:
Darse de alta
password:
Artistas más visitados
Publicidad
TOP acordes y tablaturas de la Gusana Ciega
Páginas amigas


Estás en: Inicio > Letra l > Acordes y tablaturas de la Gusana Ciega > Invasión Estelar
Invasión Estelar
de la Gusana Ciega
Puntúa este acorde/tab:      
(0.5/5)
Reportar este acorde/tab
  Añadir a tus favoritos
  Imprimir
ACORDES:
F#m11:X44200

    E         F#m11                 E
Como quisieras verme subido en un árbol,

GUTARRA JORGE

-------------------------                                       
-------------------------
                                        --1-2-1----1-2--4--------
                                        ---------4----------2----
                                        -------------------------
                                        -------------------------



dando me vueltas  hasta dejarme mareado.
Dices que vienes de un mundo  plastificado,
donde las sombras brillan en tonos plateados.

C#m              F#m        E
Y que en Marte hay vida para ti.

  E               F#m11                 E
Bajas del cielo envuelta en un manto dorado,
como si fueras un invasor del espacio.
Contando cuentos de un mundo maravillado,
por los efectos de un mejoral mejorado.


C#m       G#m        C#m          F#m
Yo quiero decir que la tierra es un sueño para dormir
C#M       G#m        F#m    A     E
No quiero esperar una invasión estelar.

--------------------------------
--------------------------------
----------------------10B-------
--------7-7H8-7-----------------
-7--10------------10------------
--------------------------------
  E                       F#m11        E
Dices que tienes sueños de mundos lejanos,
llenos de magia y llenos de juegos extraños.

  C#m      F#m         E
Y que en Marte hay vida para ti.

  E                    F#m11        E
No necesito buscar un planeta olvidado,
para sentir que tiene sentido ser alguien.


C#m       G#m        C#m          F#m
Yo quiero decir que la tierra es un sueño para dormir
C#m       G#m        F#m    A     E
No quiero esperar una invasión estelar.

Arreglo:
E   F#m11
-----------------------------------------
-5b--2-0-2-5-7b-5-0-2-5-7b-7-------------
------------------------------------7----
-------------------------------5-7-------
-----------------------------7-----------
-----------------------------------------

C#m         G#m         C#m               F#m
No quiero escapar, no quiero viajar al mundo espacial
C#m       G#m        F#m    A     E
No quiero esperar una invasión estelar.


--------------------------------
--------------------------------
----------------------10B-------
--------7-7H8-7-----------------
-7--10------------10------------
--------------------------------
		   
AcordesyTabs.com © 2008 Acordes y Tablaturas para guitarra. Tabs and Chords for guitar. Aviso Legal - Contacto
El uso de este sitio está sujeto a la aceptación de los términos y condiciones (34 usuarios online)