tablaturas, partituras y acordes para guitarra
Busca por banda/artista:
 
y/o título de la canción:
A B C D E F G H I J K L M N O P Q R S T U V W X Y Z 0 1 2 3 4 5 6 7 8 9 / Top 100 tabs
Categorías
Usuarios
usuario:
Darse de alta
password:
Artistas más visitados
Publicidad
TOP acordes y tablaturas de Aerosmith
Páginas amigas


Crazy
de Aerosmith
Puntúa este acorde/tab:      
(0.4/5)
Reportar este acorde/tab
  Añadir a tus favoritos
  Imprimir

Artist:Aerosmith
Song:crazy
Album:Get a grip/O yeah ultimate aerosmith
transcribed:jon mason
e-mail:joeperry12345@hotmail.co.uk

hope u lyk!!!

INTRO;

E--------0-0-----------0-0-----------0h2p0---------0h1p0---
B--------0h2p0---------0h2p0-------3-------3-----3-------3-
G------2-------2-------------2---2-------------2-----------
D----2---------------4---------0-------------0-------------
A--0---------------4---------------------------------------
E----------------2-----------------------------------------

E--------0-0-----------0-0-----------0h2p0---------0h1p0---
B--------0h2p0---------0h2p0-------3-------3-----3-------3-
G------2-------2-------------2---2-------------2-----------
D----2---------------4---------0-------------0-------------
A--0---------------4---------------------------------------
E----------------2-----------------------------------------


VERSE 1;

E-----------------------------------------------------------------
B-------------------------------------9/10----------4-6-6Bu-6-4-6-
G--------5/6-----------10/11--------11----11----4/6-4-6-6Bu-6-4-6-
D------7-----7-------12-----12----11--------11--4/6---------------
A----7---------7---12---------12-9--------------------------------
E--5-------------10-----------------------------------------------

E-------------------------------------------------------------
B-------------------------------------9/10--------------------
G--------5/6-----------10/11--------11----11--------10/11-----
D------7-----7-------12-----12----11--------11----12-----12---
A----7---------7---12---------12-9--------------12---------12-
E--5-------------10---------------------------10--------------


BRIDGE;

E-----0------------------------------------3--/7----7----/14----14--14-
B-----0-------------------2-4-4Bu(5)-4-2---3---------------------------
G-------------------------2-4-4Bu(5)-4-2---0--/7--7---7--/14--14--14---
D------------2--------2-4----------------4-----------------------------
A------------2---------------------------------------------------------
E--0-----0/4---2Bu(4)--------------------------------------------------

E-----0------------------------------------3--/7----7----/14----14--14-/2-
B-----0-------------------2-4-4Bu(5)-4-2---3------------------------------
G-------------------------2-4-4Bu(5)-4-2---0--/7--7---7--/14--14--14------
D------------2--------2-4----------------4--------------------------------
A------------2------------------------------------------------------------
E--0-----0/4---2Bu(4)-----------------------------------------------------


CHORUS;

    1/4                                  wammy bar
E------7-/2------2----------------------(10)/------5----2----------------------------
B--7Bu-7---------2----------------------(10)/------5----2----------------------------
G--6-------------2--------7-7-7-7-------(10)/------6----2----7-7-7-7-7-7-9-9-9-9-9-9-
D-------------------------7-7-7---7--------------------------7-7-7-7-7-7-9-9-9-9-9-9-
A-------------------------5-5-5-----5------------------------5-5-5-5-5-5-7-7-7-7-7-7-
E------------------------------------------------------------------------------------

    1/4                                  wammy bar
E------7-/2------2----------------------(10)/------5----2----------------------------
B--7Bu-7---------2----------------------(10)/------5----2----------------------------
G--6-------------2--------7-7-7-7-------(10)/------6----2----7-7-7-7-7-7-9-9-9-9-9-9-
D-------------------------7-7-7---7--------------------------7-7-7-7-7-7-9-9-9-9-9-9-
A-------------------------5-5-5-----5------------------------5-5-5-5-5-5-7-7-7-7-7-7-
E------------------------------------------------------------------------------------

E-----------------------------------------------------------------5-
B-----------------------------------------------------wammy bar---6-
G--------------9-9-9-9-9-9-------------------11-----9(7)Bu--------7-
D--9-9-9-9-9-9-9-9-9-9-9-9-111111111111---11------9--(7)Bu--------7-
A--9-9-9-9-9-9-7-7-7-7-7-7-111111111111-9-------7----(5)Bu--------5-
E--7-7-7-7-7-7-------------9-9-9-9-9-9----------------------------5-


VERSE2;

E------------------------12///-14///-----14///-12///-------------------------
B--14///-----14///-15///-----------------------------15///-14///-------------
G----------------------------------------------------------------14///-------
D----------------------------------------------------------------------12///-
A----------------------------------------------------------------------------
E----------------------------------------------------------------------------
  [---------------------------------tremelo----------------------------------] 

E--12///-----12///-14///-15///-19///-----21///-19///-------
B------------13///-15///-16///-----------------------17///-
G----------------------------------------------------------
D----------------------------------------------------------
A----------------------------------------------------------
E----------------------------------------------------------
  [------------------------tremelo-------------------------]


BRIDGE;

E-----0------------------------------------3--/7----7----/14----14--14-
B-----0-------------------2-4-4Bu(5)-4-2---3---------------------------
G-------------------------2-4-4Bu(5)-4-2---0--/7--7---7--/14--14--14---
D------------2--------2-4----------------4-----------------------------
A------------2---------------------------------------------------------
E--0-----0/4---2Bu(4)--------------------------------------------------

E-----0------------------------------------3--/7----7----/14----14--14-/2-
B-----0-------------------2-4-4Bu(5)-4-2---3------------------------------
G-------------------------2-4-4Bu(5)-4-2---0--/7--7---7--/14--14--14------
D------------2--------2-4----------------4--------------------------------
A------------2------------------------------------------------------------
E--0-----0/4---2Bu(4)-----------------------------------------------------


CHORUS2;

    1/4                                  wammy bar
E------7-/2------2----------------------(10)/------5----2----------------------------
B--7Bu-7---------2----------------------(10)/------5----2----------------------------
G--6-------------2--------7-7-7-7-------(10)/------6----2----7-7-7-7-7-7-9-9-9-9-9-9-
D-------------------------7-7-7---7--------------------------7-7-7-7-7-7-9-9-9-9-9-9-
A-------------------------5-5-5-----5------------------------5-5-5-5-5-5-7-7-7-7-7-7-
E------------------------------------------------------------------------------------

    1/4                                  wammy bar
E------7-/2------2----------------------(10)/------5----2----------------------------
B--7Bu-7---------2----------------------(10)/------5----2----------------------------
G--6-------------2--------7-7-7-7-------(10)/------6----2----7-7-7-7-7-7-9-9-9-9-9-9-
D-------------------------7-7-7---7--------------------------7-7-7-7-7-7-9-9-9-9-9-9-
A-------------------------5-5-5-----5------------------------5-5-5-5-5-5-7-7-7-7-7-7-
E------------------------------------------------------------------------------------

    1/4                                  
E------7-/2------2----------------------
B--7Bu-7---------2----------------------
G--6-------------2--------7-7-7-7-------
D-------------------------7-7-7---7-----
A-------------------------5-5-5-----5---
E---------------------------------------

E-----------------------------------------------------------------5-
B-----------------------------------------------------wammy bar---6-
G--------------9-9-9-9-9-9-------------------11-----9(7)Bu--------7-
D--9-9-9-9-9-9-9-9-9-9-9-9-111111111111---11------9--(7)Bu--------7-
A--9-9-9-9-9-9-7-7-7-7-7-7-111111111111-9-------7----(5)Bu--------5-
E--7-7-7-7-7-7-------------9-9-9-9-9-9----------------------------5-


SOLO;

E--------------------------------------------------------------
B--------------------------------------------------------------
G-----------------------------------------------------2-4Bu(6)-
D-----------------------------------------4Bu--4p2-2h4---------
A--2Bu-2Bu-2Bu-2Bu-2Bu-2Bu-2Bu-2Bu-2Bu-2p0---------------------
E--------------------------------------------------------------

E--------------------2--------------------7Bu---5---8Bu(10)-7Bu--7/5-
B-----------------------------2-5-5Bu(6)----------5------------------
G--(4)-4Bu(4)-2-4-2-2--4bu(6)----------------------------------------
D--------------------------------------------------------------------
A--------------------------------------------------------------------
E--------------------------------------------------------------------

E-----5-5-5----5-5-5----5-5-5----5-5-5/10----10-------10----10----10---10---
B--5/7------5/7------5/7------5/7------10----10--------------------------10-
G-----------------------------------------10----10-10----10----10----10-----
D---------------------------------------------------------------------------
A---------------------------------------------------------------------------
E---------------------------------------------------------------------------

E--------17----17----17/20Bu(22)-14----------14----------------
B--10/17----17----17----------------17Bu(19)----17-14----------
G--10/17----------------------------------------------16Bu(18)-
D--------------------------------------------------------------
A--------------------------------------------------------------
E--------------------------------------------------------------

E---------------------------------------------------------------------------------
B-----------------------------17Bu(17)-17/14--14----17--17--17--17--17-17--17--17-
G-------14-16-14Bu-14Bu(14)-----------------16--16----17--17--17--17-----17--17---
D--14/16-------------------16-----------------------------------------------------
A---------------------------------------------------------------------------------
E---------------------------------------------------------------------------------
    
    11/2               11/2
E--12Bu----12Bu(14)---21Bu(21)-17-------------------------------------------------------
B--------------------------------------------17----17----17----17----17----17----17-----
G----------------------------------------19Bu--19Bu--19Bu--19Bu--19Bu--19Bu--19Bu--19Bu-
D---------------------------------------------------------------------------------------
A---------------------------------------------------------------------------------------
E---------------------------------------------------------------------------------------


PRE CHORUS;

    full              
E------------------wammy-bar----------------
B--17Bu(17)------17Bu(19)----------14Bu(16)-
G-------------------------------------------
D-------------------------------------------
A-------------------------------------------
E-------------------------------------------

    full              
E------------------wammy-bar----------------
B--17Bu(17)------17Bu(19)----------14Bu(16)-
G-------------------------------------------
D-------------------------------------------
A-------------------------------------------
E-------------------------------------------


CHORUS 3;

    1/4                                  wammy bar
E------7-/2------2----------------------(10)/------5----2----------------------------
B--7Bu-7---------2----------------------(10)/------5----2----------------------------
G--6-------------2--------7-7-7-7-------(10)/------6----2----7-7-7-7-7-7-9-9-9-9-9-9-
D-------------------------7-7-7---7--------------------------7-7-7-7-7-7-9-9-9-9-9-9-
A-------------------------5-5-5-----5------------------------5-5-5-5-5-5-7-7-7-7-7-7-
E------------------------------------------------------------------------------------

    1/4                                  wammy bar
E------7-/2------2----------------------(10)/------5----2----------------------------
B--7Bu-7---------2----------------------(10)/------5----2----------------------------
G--6-------------2--------7-7-7-7-------(10)/------6----2----7-7-7-7-7-7-9-9-9-9-9-9-
D-------------------------7-7-7---7--------------------------7-7-7-7-7-7-9-9-9-9-9-9-
A-------------------------5-5-5-----5------------------------5-5-5-5-5-5-7-7-7-7-7-7-
E------------------------------------------------------------------------------------

    1/4                                  
E------7-/2------2----------------------
B--7Bu-7---------2----------------------
G--6-------------2--------7-7-7-7-------
D-------------------------7-7-7---7-----
A-------------------------5-5-5-----5---
E---------------------------------------

E-----------------------------------------------------------------5-
B-----------------------------------------------------wammy bar---6-
G--------------9-9-9-9-9-9-------------------11-----9(7)Bu--------7-
D--9-9-9-9-9-9-9-9-9-9-9-9-111111111111---11------9--(7)Bu--------7-
A--9-9-9-9-9-9-7-7-7-7-7-7-111111111111-9-------7----(5)Bu--------5-
E--7-7-7-7-7-7-------------9-9-9-9-9-9----------------------------5-


Im not 100% on the intro because it's hard to hear in the CD. And if you spot any 
mistakes in the solo + everything else e-mail me the corrections.

            Enjoy!        P.S: feel free to use my tab.

		   
AcordesyTabs.com © 2008 Acordes y Tablaturas para guitarra. Tabs and Chords for guitar. Aviso Legal - Contacto
El uso de este sitio está sujeto a la aceptación de los términos y condiciones (26 usuarios online)