tablaturas, partituras y acordes para guitarra
Busca por banda/artista:
 
y/o título de la canción:
A B C D E F G H I J K L M N O P Q R S T U V W X Y Z 0 1 2 3 4 5 6 7 8 9 / Top 100 tabs
Categorías
Usuarios
usuario:
Darse de alta
password:
Artistas más visitados
Publicidad
TOP acordes y tablaturas de Marilyn Manson
Páginas amigas


Sweet Dreams
de Marilyn Manson
Puntúa este acorde/tab:      
(1.2/5)
Reportar este acorde/tab
  Añadir a tus favoritos
  Imprimir

Band: Marlilyn Manson
Song: Sweet Drams (Eurythmics Cover)
Tabbed by: Alex


1.)Unidentified Sound for 5 seconds

2.)Intro

E||------------------|-------------------|-------------------|------------------
B||------------------|-------------------|-------------------|------------------
G||------------------|-------------------|-------------------|------------------
D||----------5-------|--6-------5--------|-------------------|------------------
A||--3---3-------3---|------3-------3----|----------5---6----|----------3---5---
E||------------------|-------------------|--4---4------------|--3---3-----------

3.)Verse 1 (reapeat the intro all the time)

Sweet Dreams are made of these
Who have a mind to disagree
travel the world and the seven seas
everybody is looking for something

4.)Chorus (intro reapeated)

Some of them want to use you
Some of them wanna get used by you
Some of them want to abuse you
Some of them want to be abused

5a.)Guitar Part (plus drum)

e|------------------|------------------|------------------|------------------|
B|------------------|------------------|------------------|------------------|
G|------------------|------------------|------------------|--------------5---|
D|--6---6---6---6---|--6---6---6---6---|--6---6---6---6---|--6---5---5---5---|
A|--6---6---6---6---|--6---6---6---6---|--6---6---6---6---|--6---5---5---3---|
E|--4---4---4---4---|--4---4---4---4---|--4---4---4---4---|--4---3---3-------|


e|------------------|------------------|------------------|------------------|
B|------------------|------------------|------------------|------------------|
G|--5---5---5---5---|--5---5---5---5---|--5---5---5---5---|------------------|
D|--5---5---5---5---|--5---5---5---5---|--6---6---6---6---|--6---6---6---5---|
A|--3---3---3---3---|--3---3---3---3---|--6---6---6---6---|--6---6---6---5---|
E|------------------|------------------|--4---4---4---4---|--4---4---4---3---|


e|------------------|------------------|------------------|------------------|
B|------------------|------------------|------------------|------------------|
G|------------------|------------------|------------------|------------------|
D|--6---6---6---6---|--6---6---6---6---|--5---5---5---5---|--5---5---5---5---|
A|--6---6---6---6---|--6---6---6---6---|--5---5---5---5---|--5---5---5---5---|
E|--4---4---4---4---|--4---4---4---4---|--3---3---3---3---|--3---3---3---3---|


5b.)Guitar-part(with wahwah!!)
E|-----------------------------------------------------------------|
B|-----------------------------------------------------------------|
G|-----------------------------------------------------------------|
D|----------5-------6-------5--------------------------------------|  4x
A|--3---3-------3-------3-------3-----------5---6-----------3---5--|
E|----------------------------------4---4-----------3---3----------|

6.)Verse 2 (Intro repeated)

Sweet Dreams are made of these
Who have a mind to disagree
travel the world and the seven seas
everybody is looking for something

7.)Chorus(Intro reapeated)

Some of them want to use you
Some of them wanna get used by you
Some of them want to abuse you
Some of them want to be abused

8a.)BRIDGE (part for guitar)

|------------------|------------------|------------------|------------------|
|--------------3b--|--------------7b--|--------------3b--|--------------7b--|
|--5---3---5-------|--5---3---5-------|--5---3---5-------|--5---3---5-------|
|------------------|------------------|------------------|------------------|
|------------------|------------------|------------------|------------------|
|------------------|------------------|------------------|------------------|

|------------------|------------------|------------------|------------------|
|--------------3b--|--------------7b--|------------------|------------------|
|--5---3---5-------|--5---3---5-------|---5~~~-----------|------------------|
|------------------|------------------|------------------|------------------|
|------------------|------------------|------------------|------------------|
|------------------|------------------|------------------|------------------|

8b.)BRIDGE (per for drum + vocal)

I wanna use you
I wanna use you
I wanna know by your side
Movin' on
Movin' on
Movin' on
Movin' on (whispered:"watch out") 
Movin' on
Don't movin' on.....

9.)SOLO

|--6---8---11---6--|--8---6~------------|------------------|------------------|
|------------------|-----------7--------|------------------|------------------|
|------------------|--------------------|--5---3---5-------|------------------|
|------------------|--------------------|--------------3---|--3---5---3---5---|
|------------------|--------------------|------------------|------------------|
|------------------|--------------------|------------------|------------------|

|------------------|--------------------|------------------|------------------|
|------------------|--------------------|------------------|------------------|
|------------------|--------------------|----------3---3---|--5---6---5---5---|
|--3---5-----------|--3-----3--3--3--3--|--5---6-----------|------------------|
|----------3---5---|--------------------|------------------|------------------|
|------------------|--------------------|------------------|------------------|

|------------------|-------6---8---6----|--11---13---14b-------|
|--3---4---3---6---|--6b----------------|-----------------13~--|
|------------------|--------------------|----------------------|
|------------------|--------------------|----------------------|
|------------------|--------------------|----------------------|
|------------------|--------------------|----------------------|

10.)VERSE 3 (only Drums and keyboard)

Lick arranged for guitar:

e|--3------|---------|---------|---------|
B|------1--|---------|----4----|----3----|
G|---------|---------|---------|---------|

Sweet Dreams are made of these
Who have a mind to disagree
travel the world and the seven seas
everybody is looking for something

11.)CHORUS (intro reapeated)

Some of them want to use you
Some of them wanna get used by you
Some of them want to abuse you
Some of them want to be abused--

12.)BRIDGE (repeat 8a for all the bridge)
I wanna use you
I wanna use you
I wanna know by your side
I wanna use you
I wanna use you
I wanna know by your side

14.)End (guitar effect+unidentified sound)

AcordesyTabs.com © 2008 Acordes y Tablaturas para guitarra. Tabs and Chords for guitar. Aviso Legal - Contacto
El uso de este sitio está sujeto a la aceptación de los términos y condiciones (47 usuarios online)