tablaturas, partituras y acordes para guitarra
Busca por banda/artista:
 
y/o título de la canción:
A B C D E F G H I J K L M N O P Q R S T U V W X Y Z 0 1 2 3 4 5 6 7 8 9 / Top 100 tabs
Categorías
Usuarios
usuario:
Darse de alta
password:
Artistas más visitados
Publicidad
Páginas amigas


Canción pendiente de aprobación:
Morena - Solo
de Los Felinos
Puntúa este acorde/tab, le das tu aprobación?:      
(0.185185185185/5)
Solo: Morena
Grupo: Los Felinos

e—-------16------------------------------------------------
B—14b16----—14b16r14--11-----14b16—16r14--11-14-11---------
G------------------------13------------------------13—11---
D----------------------------------------------------------
A----------------------------------------------------------
E----------------------------------------------------------

e—----------------------------------------------------------------
B-----11-11----11-11----------------------11-11----------------11-
G-----11-11----11-11----------------------11-11----------11h13----
D--13-------13------13--11-12-13-(13)-(13)------13—11h13----------
A-----------------------------------------------------------------
E-----------------------------------------------------------------


e—--11---------------16-----------------14b16--
B-11--11—14b16-14b16—---14b16r14-11------------
G-----------------------------------13---------
D----------------------------------------------
A----------------------------------------------
E----------------------------------------------


e—14-14p11----11--------------------------------------
B-----------14--14p11---------------------------------
G---------------------13-11---------------------------
D---------------------------12--13-12-10-12-13-12-13--
A-----------------------------------------------------
E-----------------------------------------------------


e—------------------------9-11-9----------------------
B-------------11-12-11-12--------12-11----------------
G-10-11-10-11-----------------------------------------
D-----------------------------------------------------
A-----------------------------------------------------
E-----------------------------------------------------

b = bend
r = release bend
h = hammer on
p = pull off
AcordesyTabs.com © 2008 Acordes y Tablaturas para guitarra. Tabs and Chords for guitar. Aviso Legal - Contacto
El uso de este sitio está sujeto a la aceptación de los términos y condiciones (27 usuarios online)