tablaturas, partituras y acordes para guitarra
Busca por banda/artista:
 
y/o título de la canción:
A B C D E F G H I J K L M N O P Q R S T U V W X Y Z 0 1 2 3 4 5 6 7 8 9 / Top 100 tabs
Categorías
Usuarios
usuario:
Darse de alta
password:
Artistas más visitados
Publicidad
Páginas amigas


Canción pendiente de aprobación:
Para Ti
de ZuDeX
Puntúa este acorde/tab, le das tu aprobación?:      
(0.32967032967/5)
el Into de la cancion se repite 6 o 7 veces creo

E-|---2-2-2-2-2-2-2-2-2-2-2-2-2-2-2-2-|0-0-0-0-0-0-0-0-0-0|
B-|-----------------------------------|-------------------|
G-|-----------------------------------|-------------------|
D-|-----------------------------------|-------------------|
A-|-----------------------------------|-------------------|
E-|-----------------------------------|-------------------|

E-|0-0-0-0-0-0|-------------------------------|-----------|
B-|-----------|3-3-3-3-3-3-3-3-3-3-3-3-3-3-3-3|2-2-2-2-2-2|
G-|-----------|-------------------------------|-----------|
D-|-----------|-------------------------------|-----------|
A-|-----------|-------------------------------|-----------|
E-|-----------|-------------------------------|-----------|

E-|----|---------|0-0-0-0-|
B-|2-2-|-3-3-3-3-|--------|
G-|----|---------|--------|
D-|----|---------|--------|
A-|----|---------|--------|
E-|----|---------|--------|

AcordesyTabs.com © 2008 Acordes y Tablaturas para guitarra. Tabs and Chords for guitar. Aviso Legal - Contacto
El uso de este sitio está sujeto a la aceptación de los términos y condiciones (21 usuarios online)