tablaturas, partituras y acordes para guitarra
Busca por banda/artista:
 
y/o título de la canción:
A B C D E F G H I J K L M N O P Q R S T U V W X Y Z 0 1 2 3 4 5 6 7 8 9 / Top 100 tabs
Categorías
Usuarios
usuario:
Darse de alta
password:
Artistas más visitados
Publicidad
TOP acordes y tablaturas de Foo fighters


Estás en: Inicio > Letra F > Acordes y tablaturas de Foo fighters > Walking a line
Walking a line
de Foo fighters
Puntúa este acorde/tab:      
(0.3/5)
Reportar este acorde/tab
  Añadir a tus favoritos
  Imprimir
x - LH Mute
/ - Slide up
 - Slide down
h - Hammer-on
p - Pull-off
~ - Vibrato
3b¼ - Quarter step bend (halfway between the pitch of fret 3 + 4)
b - Bend (3b4=bend from 3rd fret to pitch of 4)
r - Release bend
pm - Palm Mute

|o
| - Repeat (number of times to repeat written above sign, no number = repeat once)
|o

Gtr I (C G C F A D)   Top Staff
Gtr II (E A D G B e)  Bottom Staff


  *INTRO* Gtr II
e|-----------|-----------|-----------|-------------|
B|-----------|-----------|-----------|-------------|
G|-3~---3~---|-3~---3~---|-3~---3~---|-3--3--3--3--|
D|-----------|-----------|-----------|-------------|
A|-----------|-----------|-----------|-------------|
E|-----------|-----------|-----------|-------------|


  
D||-----------------|----------------|----------------|------------------||
A||o----------------|----------------|----------------|-----------------o||
F||-----------------|----------------|----------------|------------------||
C||-----------------|----------------|----------------|------------------||
G||o----------------|----------------|----------------|-----------------o||
C||--0-0-0-0----0-2-|-3-3-3-3----3-2-|-0-0-0-0----0-2-|-3-3-3-3----------||
 |
 |  
e||-----------------|----------------|----------------|------------------||
B||o----------------|----------------|----------------|-----------------o||
G||----------3------|---------3------|---------3------|---------3-x-3p0--||
D||-----------------|----------------|----------------|------------------||
A||o----------------|----------------|----------------|-----------------o||
E||-----------------|----------------|----------------|------------------||


   *VERSE 1*
D||-----------------|----------------|----------------|
A||o----------------|----------------|----------------|
F||-----------------|----------------|----------------|
C||-----------------|----------------|----------------|
G||o----------------|----------------|----------------|
C||--0-0-0-0----0-2-|-3-3-3-3----3-4-|-5-5-5-5----5-4-|
 |
e||-----------------|----------------|----------------|
B||o----------------|----------------|----------------|
G||----------3------|---------3------|---------2------|
D||-----------------|----------------|----------------|
A||o----------------|----------------|----------------|
E||-----------------|----------------|----------------|


|----------------|------------------|------------------------|
|----------------|------------------|------------------------|
|----------------|------------------|------------------------|
|----------------|------------------|------------------------|
|----------------|------------------|------------------------|
|-3-3-3-3----3-5-|-0-0-0-0----12-11-|-10-10-10-10----10-9----|
|
|----------------|------------------|------------------------|
|----------------|------------------|-------------3----------|
|---------3------|---------5--------|------------------------|
|----------------|------------------|------------------------|
|----------------|------------------|------------------------|
|----------------|------------------|------------------------|


                                       
					*PRE-CHORUS*
|-----------------|------------------||-----------------|
|-----------------|-----------------o||-----------------|
|-----------------|------------------||-----------------|
|-----------------|------------------||-----------------|
|-----------------|-----------------o||-----------------|
|-8-8-8-8----8-10-|-5-5-5-5----------||-0-0-0-0-0-0-0-2-|
|
|-----------------|------------------||-----------------|
|---------4-------|-----------------o||-----------------|
|-----------------|---------5-x-3p0--||---------3-------|
|-----------------|------------------||-----------------|
|-----------------|-----------------o||-----------------|
|-----------------|------------------||-----------------|


|-----------------|-----------------|-----------------|
|-----------------|-----------------|-----------------|
|-----------------|-----------------|-----------------|
|-----------------|-----------------|-----------------|
|-----------------|-----------------|-----------------|
|-3-3-3-3-3-0-3-4-|-5-5-5-5-5-5-5-4-|-3-3-3-3-3-0-3-4-|
|
|-----------------|-----------------|-----------------|
|-----------------|-----------------|-----------------|
|---------3-------|---------2-------|---------3-------|
|-----------------|-----------------|-----------------|
|-----------------|-----------------|-----------------|
|-----------------|-----------------|-----------------|


|---------------------|-----------------------|
|---------------------|-----------------------|
|---------------------|-----------------------|
|---------------------|-----------------------|
|---------------------|-----------------------|
|-0-0-0-0-12-12-12-11-|-10-10-10-10-10-0-10-9-|
|
|---------------------|-----------------------|
|---------------------|--------------3--------|
|----------5----------|-----------------------|
|---------------------|-----------------------|
|---------------------|-----------------------|
|---------------------|-----------------------|


|------------------|------------------|
|------------------|------------------|
|------------------|------------------|
|------------------|------------------|
|------------------|------------------|
|-8-8-8-8-8-0-8-10-|-5-5-5-5-5--------|
|
|------------------|------------------|
|---------4--------|------------------|
|------------------|---------5-x-3p0--|
|------------------|------------------|
|------------------|------------------|
|------------------|------------------|


|----------|----------|---------------------|
|----------|----------|---------------------|
|----------|----------|---------------------|
|----------|----------|---------------------|
|----------|----------|---------------------|
|----------|----------|---------------------|
|
| 
|----------|----------|---------------------|
|----------|----------|---------------------|
|-3~-------|-3~-------|-3----3b¼r3----------|
|----------|----------|---------------------|
|----------|----------|---------------------|
|----------|----------|---------------------|


|------------------------------------|
|------------------------------------|
|------------------------------------|
|------------------------------------|
|------------------------------------|
|------------------------------------|
|
|------------------------------------|
|------------------------------------|
|-3b5--3b5--3b5--3b5-----------------|
|------------------------------------|
|------------------------------------|
|------------------------------------|


*CHORUS*
D|-----------------|-----------------|
A|-----------------|-----------------|
F|-2-2-2-2-2-2-2-4-|-5-5-5-5-5---5-6-|
C|-0-0-0-0-0-0-0-2-|-3-3-3-3-3-0-3-4-|
G|-0-0-0-0-0-0-0-2-|-3-3-3-3-3-0-3-4-|
C|-0-0-0-0-0-0-0-2-|-3-3-3-3-3-0-3-4-|
 |
e|-----------------|-----------------|
B|-----------------|-----------------|
G|-5-5-5-5-5-5-5-7-|-8-8-8-8-8-8-8-8-|
D|-5-5-5-5-5-5-5-7-|-8-8-8-8-8-8-8-8-|
A|-3-3-3-3-3-3-3-5-|-6-6-6-6-6-6-6-6-|
E|-----------------|-----------------|



|-----------------|-------------------------|
|-----------------|-------------------------|
|-7-7-7-7-7---7-9-|-10-10-10-10-10----------|
|-5-5-5-5-5-0-5-7-|--8--8--8--8--8-0-10-11--|
|-5-5-5-5-5-0-5-7-|--8--8--8--8--8-0-10-11--|
|-5-5-5-5-5-0-5-7-|--8--8--8--8--8-0-10-11--|
|
|-----------------|-------------------------|
|-6-6-6-6-6-6-6-8-|--9--9--9--9--9----------|
|-5-5-5-5-5-5-5-7-|--8--8--8--8--8-3--3--4--|
|-3-3-3-3-3-3-3-5-|--6--6--6--6--6-3--3--4--|
|-----------------|----------------1--1--2--|
|-----------------|-------------------------|



|--------------------|-----------------|
|--------------------|-----------------|
|-11----11-----------|-5-5-5-5-5---5-6-|
|--x-----x-0-0-0-0-2-|-3-3-3-3-3-0-3-4-|
|-12-12-12-0-0-0-0-2-|-3-3-3-3-3-0-3-4-|
|--0--0--0-0-0-0-0-2-|-3-3-3-3-3-0-3-4-|
|
|--------------------|-----------------|
|--------------------|-----------------|
|--5--5--5-5-5-5-5-7-|-8-8-8-8-8-8-8-8-|
|--5--5--5-5-5-5-5-7-|-8-8-8-8-8-8-8-8-|
|--3--3--3-3-3-3-3-5-|-6-6-6-6-6-6-6-6-|
|--------------------|-----------------|


|-----------------|-------------------------|
|-----------------|-------------------------|
|-7-7-7-7-7---7-9-|-10-10-10-10-10----------|
|-5-5-5-5-5-0-5-7-|--8--8--8--8--8-0-10-11--|
|-5-5-5-5-5-0-5-7-|--8--8--8--8--8-0-10-11--|
|-5-5-5-5-5-0-5-7-|--8--8--8--8--8-0-10-11--|
|
|-----------------|-------------------------|
|-6-6-6-6-6-6-6-8-|--9--9--9--9--9----------|
|-5-5-5-5-5-5-5-7-|--8--8--8--8--8-3--3--4--|
|-3-3-3-3-3-3-3-5-|--6--6--6--6--6-3--3--4--|
|-----------------|----------------1--1--2--|
|-----------------|-------------------------|


|----------------|----------------|----------------|------------------|
|----------------|----------------|----------------|------------------|
|----------------|----------------|----------------|------------------|
|----------------|----------------|----------------|------------------|
|----------------|----------------|----------------|------------------|
|-0-0-0-0----0-2-|-3-3-3-3----3-2-|-0-0-0-0----0-2-|-3-3-3-3----------|
|
|----------------|----------------|----------------|------------------|
|----------------|----------------|----------------|------------------|
|---------3------|---------3------|---------3------|---------3-x-3p0--|
|----------------|----------------|----------------|------------------|
|----------------|----------------|----------------|------------------|
|----------------|----------------|----------------|------------------|


*REPEAT VERSE*


*PRE-CHORUS 2*                                       
|-----------------|
|-----------------|
|-----------------|
|-----------------|
|-0-0-0-0-0-0-0-2-|
|
|-----------------|
|-----------------|
|---------3-------|
|-----------------|
|-----------------|
|-----------------|


|-----------------|-----------------|-----------------|
|-----------------|-----------------|-----------------|
|-----------------|-----------------|-----------------|
|-----------------|-----------------|-----------------|
|-----------------|-----------------|-----------------|
|-3-3-3-3-3-0-3-4-|-5-5-5-5-5-5-5-4-|-3-3-3-3-3-0-3-4-|
|
|-----------------|-----------------|-----------------|
|-----------------|-----------------|-----------------|
|---------3-------|---------2-------|---------3-------|
|-----------------|-----------------|-----------------|
|-----------------|-----------------|-----------------|
|-----------------|-----------------|-----------------|


|---------------------|-----------------------|------------------|
|---------------------|-----------------------|------------------|
|---------------------|-----------------------|------------------|
|---------------------|-----------------------|------------------|
|---------------------|-----------------------|------------------|
|-0-0-0-0-12-12-12-11-|-10-10-10-10-10-0-10-9-|-8-8-8-8-8-0-8-10-|
|
|---------------------|-----------------------|------------------|
|---------------------|--------------3--------|---------4--------|
|----------5----------|-----------------------|------------------|
|---------------------|-----------------------|------------------|
|---------------------|-----------------------|------------------|
|---------------------|-----------------------|------------------|


|-----------------|-----------|---------------------------------|
|-----------------|-----------|---------------------------------|
|-----------------|-----------|---------------------------------|
|-----------------|-----------|---------------------------------|
|-----------------|-----------|---------------------------------|
|-5-5-5-5-5-------|-----------|---------------------------------|
|
|                 
|-----------------|-----------|---------------------------------|
|-----------------|-----------|---------------------------------|
|---------5-x-3p0-|-3~---3~---|-3b5-3b5-3b5-3b5-----------------|
|-----------------|-----------|---------------------------------|
|-----------------|-----------|---------------------------------|
|-----------------|-----------|---------------------------------|


*CHORUS 2*
|-----------------|-----------------|
|-----------------|-----------------|
|-2-2-2-2-2-2-2-4-|-5-5-5-5-5---5-6-|
|-0-0-0-0-0-0-0-2-|-3-3-3-3-3-0-3-4-|
|-0-0-0-0-0-0-0-2-|-3-3-3-3-3-0-3-4-|
|-0-0-0-0-0-0-0-2-|-3-3-3-3-3-0-3-4-|
|
|-----------------|-----------------|
|-----------------|-----------------|
|-5-5-5-5-5-5-5-7-|-8-8-8-8-8-8-8-8-|
|-5-5-5-5-5-5-5-7-|-8-8-8-8-8-8-8-8-|
|-3-3-3-3-3-3-3-5-|-6-6-6-6-6-6-6-6-|
|-----------------|-----------------|


|-----------------|-------------------------|
|-----------------|-------------------------|
|-7-7-7-7-7---7-9-|-10-10-10-10-10----------|
|-5-5-5-5-5-0-5-7-|--8--8--8--8--8-0-10-11--|
|-5-5-5-5-5-0-5-7-|--8--8--8--8--8-0-10-11--|
|-5-5-5-5-5-0-5-7-|--8--8--8--8--8-0-10-11--|
|
|-----------------|-------------------------|
|-6-6-6-6-6-6-6-8-|--9--9--9--9--9----------|
|-5-5-5-5-5-5-5-7-|--8--8--8--8--8-3--3--4--|
|-3-3-3-3-3-3-3-5-|--6--6--6--6--6-3--3--4--|
|-----------------|----------------1--1--2--|
|-----------------|-------------------------|


||---------------------|-----------------|
||o--------------------|-----------------|
||--11----11-----------|-5-5-5-5-5---5-6-|
||---x-----x-0-0-0-0-2-|-3-3-3-3-3-0-3-4-|
||o-12-12-12-0-0-0-0-2-|-3-3-3-3-3-0-3-4-|
||---0--0--0-0-0-0-0-2-|-3-3-3-3-3-0-3-4-|
|
||---------------------|-----------------|
||o--------------------|-----------------|
||---5--5--5-5-5-5-5-7-|-8-8-8-8-8-8-8-8-|
||---5--5--5-5-5-5-5-7-|-8-8-8-8-8-8-8-8-|
||o--3--3--3-3-3-3-3-5-|-6-6-6-6-6-6-6-6-|
||---------------------|-----------------|


                                            3x
|-----------------|-------------------------||
|-----------------|------------------------o||
|-7-7-7-7-7---7-9-|-10-10-10-10-10----------||
|-5-5-5-5-5-0-5-7-|--8--8--8--8--8-0-10-11--||
|-5-5-5-5-5-0-5-7-|--8--8--8--8--8-0-10-11-o||
|-5-5-5-5-5-0-5-7-|--8--8--8--8--8-0-10-11--||
|
|                                           3x
|-----------------|-------------------------||
|-6-6-6-6-6-6-6-8-|--9--9--9--9--9---------o||
|-5-5-5-5-5-5-5-7-|--8--8--8--8--8-3--3--4--||
|-3-3-3-3-3-3-3-5-|--6--6--6--6--6-3--3--4--||
|-----------------|----------------1--1--2-o||
|-----------------|-------------------------||



*INTERLUDE*                               4x
Gtr I
D||--------------------|-------------------||--------------|
A||o-------------------|------------------o||--------------|
F||--------------------|-------------------||--|8bar rest|-|
C||--------------------|-------------------||--------------|
G||o-------------------|------------------o||--------------|
C||--12-0-0-0-12-0-0-0-|-12-0-0-0-12-0-0---||--------------|



  PM-------------------------------------------------------------------|
D|-----------------|-----------------|-----------------|--------------------|
A|-----------------|-----------------|-----------------|--------------------|
F|-----------------|-----------------|-----------------|--------------------|
C|-----------------|-----------------|-----------------|--------------------|
G|-0-0-0-0-0-0-0-2-|-3-3-3-3-3-0-3-4-|-5-5-5-5-5-0-5-7-|-8-8-8-8-8-0-10-11--|
C|-0-0-0-0-0-0-0-2-|-3-3-3-3-3-0-3-4-|-5-5-5-5-5-0-5-7-|-8-8-8-8-8-0-10-11--|
 |
 | 
 | PM-------------------------------------------------------------------|
e|-----------------|-----------------|-----------------|--------------------|
B|-----------------|-----------------|-----------------|--------------3--4--|
G|-----------------|-----------------|---------------4-|-5-5-5-5-5-5--------|
D|-2-2-2-2-2-2-2-4-|-5-5-5-5-5-5-5-6-|-7-7-7-7-7-7-7---|--------------------|
A|-----------------|-----------------|-----------------|--------------------|
E|-----------------|-----------------|-----------------|--------------------|


     PM--------------------------------------
||------------------------|-----------------|
||o-----------------------|-----------------|
||------------------------|-----------------|
||------------------------|-----------------|
||o-12-12-12-12-12--0-0-2-|-3-3-3-3-3-0-3-4-|
||--12-12-12-12-12--0-0-2-|-3-3-3-3-3-0-3-4-|
|
|    PM--------------------------------------
||------------------------|-----------------|
||o--5--5--5--5--5-------|-----------------|
||------------------------|-----------------|
||--------------------2-4-|-5-5-5-5-5-5-5-6-|
||o-----------------------|-----------------|
||------------------------|-----------------|


 ----------------------------------|
|-----------------|--------------------||
|-----------------|-------------------o||
|-----------------|--------------------||
|-----------------|--------------------||
|-5-5-5-5-5-0-5-7-|-8-8-8-8-8-0-10-11-o||
|-5-5-5-5-5-0-5-7-|-8-8-8-8-8-0-10-11--||
|
|----------------------------------|
|-----------------|--------------------||
|-----------------|--------------3--4-o||
|---------------4-|-5-5-5-5-5-5--------||
|-7-7-7-7-7-7-7---|--------------------||
|-----------------|-------------------o||
|-----------------|--------------------||


   PM---------------------------------------------------------|
|-----------------------|-----------------|-----------------|---------|
|-----------------------|-----------------|-----------------|---------|
|-----------------------|-----------------|-----------------|---------|
|-----------------------|-----------------|-----------------|---------|
|-12-12-12-12-12--0-0-2-|-3-3-3-3-3-0-3-4-|-5-5-5-5-5-5-5-4-|-3-------|
|-12-12-12-12-12--0-0-2-|-3-3-3-3-3-0-3-4-|-5-5-5-5-5-5-5-4-|-3-------|
|
|  PM---------------------------------------------------------|
|-----------------------|-----------------|-----------------|---------|
|--5--5--5--5--5-------|-----------------|-----------------|---------|
|-----------------------|-----------------|-----------------|---------|
|-------------------2-4-|-5-5-5-5-5-5-5-6-|-7-7-7-7-7-7-7-6-|-5-------|
|-----------------------|-----------------|-----------------|---------|
|-----------------------|-----------------|-----------------|---------|


*REPEAT CHORUS 2*



*AIN'T NO TURNING BACK BIT*
D||------------------|-----------------|
A||o-----------------|-----------------|
F||--2-2-2-2-2-2-2-4-|-5-5-5-5-5---5-6-|
C||--0-0-0-0-0-0-0-2-|-3-3-3-3-3-0-3-4-|
G||o-0-0-0-0-0-0-0-2-|-3-3-3-3-3-0-3-4-|
C||--0-0-0-0-0-0-0-2-|-3-3-3-3-3-0-3-4-|
|
e||------------------|-----------------|
B||o-----------------|-----------------|
G||------5p0-3p0-----|-----5p0-3p0-----|
D||--5-5---------3h5-|-5-5---------3h5-|
A||o-----------------|-----------------|
E||------------------|-----------------|


                  |1st time bar		     |
|-----------------|-------------------------||
|-----------------|------------------------o||
|-7-7-7-7-7---7-9-|-10-10-10-10-10----------||
|-5-5-5-5-5-0-5-7-|--8--8--8--8--8-0-10-11--||
|-5-5-5-5-5-0-5-7-|--8--8--8--8--8-0-10-11-o||
|-5-5-5-5-5-0-5-7-|--8--8--8--8--8-0-10-11--||
|
|                                ~~~~~~~
|-----------------|-------------------------||
|-----------------|-------------------4----o||
|-----5p0-3p0-3p0-|--------5p=0--5----------||
|-5-5-------------|--5--5-------------------||
|-----------------|------------------------o||
|-----------------|-------------------------||


|2nd time bar					       |
|------------------------|-----------|----------------*|
|------------------------|-----------|----------------*|
|-10-10-10-10-10---------|-----------|----------------*|
|--8--8--8--8--8-0-10-11-|-7~--------|-7--7--7---7----*|
|--8--8--8--8--8-0-10-11-|-----------|---------8---8-*|
|--8--8--8--8--8-0-10-11-|-----------|----------------*|
|
|                   
|------------------------|-----------|----------------*|
|-------------------4~---|-----------|----------------*|
|--3p0--3p0--5p0---------|-3~---3~---|-3--3--3p0-3p0--*|
|------------------------|-----------|----------------*|
|------------------------|-----------|----------------*|
|------------------------|-----------|----------------*|		   
AcordesyTabs.com © 2008 Acordes y Tablaturas para guitarra. Tabs and Chords for guitar. Aviso Legal - Contacto
El uso de este sitio está sujeto a la aceptación de los términos y condiciones (26 usuarios online)