tablaturas, partituras y acordes para guitarra
Busca por banda/artista:
 
y/o título de la canción:
A B C D E F G H I J K L M N O P Q R S T U V W X Y Z 0 1 2 3 4 5 6 7 8 9 / Top 100 tabs
Categorías
Usuarios
usuario:
Darse de alta
password:
Artistas más visitados
Publicidad
TOP acordes y tablaturas de P.o.d.


Alive
de P.o.d.
Puntúa este acorde/tab:      
(0.6/5)
Reportar este acorde/tab
  Añadir a tus favoritos
  Imprimir
Intro and Verses:
     D5           G5                     A#5
e|----------------------------------------------
b|----------------------------------------------
g|----------------------------------------------
d|---------------555-7/8-777-7-8-------888--7-0--
a|---555-3-5-----555-7/8-777-7-8-------888--7-0--
e|---555-3-5-------------------------------------play until chorus

The strumming, I think, is perfect.  Listen to the track to get the length 
of time of rest between the strumming.

For the chorus, I'm not totally sure how the begginning of the chorus goes 
but I amd sure about it after the transition from 2244 - 888.

Chorus:

e|-----------------------------------------
b|-----------------------------------------
g|--3--7-----------------------------------
d|--3--7--3--3-----------------------------
a|--1--5--3--3-----------------------------
e|--------1--1-----------------------------

e|----------------
b|----------------
g|----------------
d|----------------
a|--8-7-5-7--5-3--
e|----------------  x2

The bridge only consists of the notes played at the end of the
chorus like this:

Bridge:

e|----------------------------------
b|----------------------------------
g|----------------------------------
d|----------------------------------
a|--5~~~~-8-7------8~~~~------------
e|------------8~~~~-----8~~~~-------  x8

During the bridge a second guitarist comes in with a high
pitched bend.  I'm not sure what it is but this is my best
guess.

a|-12h13-12h13-12h13-12h13...------
b|---------------------------------
g|---------------------------------
d|---------------------------------
a|---------------------------------
e|--------------------------------- x2

They play that through the last chorus of the song as well.

Then the outro goes like so:

Outro:

e|-----------------
b|-----------------
g|-----------------
d|--22202--220202--
a|--22202--220202--
e|--22202--220202-- x4

h = hammer on
/ = slide
^ = bend
~ = vibrato		   
AcordesyTabs.com © 2008 Acordes y Tablaturas para guitarra. Tabs and Chords for guitar. Aviso Legal - Contacto
El uso de este sitio está sujeto a la aceptación de los términos y condiciones (28 usuarios online)