tablaturas, partituras y acordes para guitarra
Busca por banda/artista:
 
y/o título de la canción:
A B C D E F G H I J K L M N O P Q R S T U V W X Y Z 0 1 2 3 4 5 6 7 8 9 / Top 100 tabs
Categorías
Usuarios
usuario:
Darse de alta
password:
Artistas más visitados
Publicidad
TOP acordes y tablaturas de Metallica


Estás en: Inicio > Letra M > Acordes y tablaturas de Metallica > Nothing Else Matters Solo
Nothing Else Matters Solo
de Metallica
Puntúa este acorde/tab:      
(0.4/5)
Reportar este acorde/tab
  Añadir a tus favoritos
  Imprimir
nothing else matters.solo
mettalica
by alejandro villanueva

1|12----14----15-----17-----
2|---12----12----12-----12--
3|--------------------------
4|--------------------------
5|--------------------------
6|--------------------------



1|8---8-------8----
2|-5---5-----5-5---
3|--5---5---5---5--
4|-----------------
5|--------0--------
6|-----------------

1|0---0---0---0----------
2|-1---1---2---2---------
3|--0-------3------------
4|-----------------------
5|-----------------------
6|-----------------------

thats it i hope you enjoy it
		   
AcordesyTabs.com © 2008 Acordes y Tablaturas para guitarra. Tabs and Chords for guitar. Aviso Legal - Contacto
El uso de este sitio está sujeto a la aceptación de los términos y condiciones (33 usuarios online)