tablaturas, partituras y acordes para guitarra
Busca por banda/artista:
 
y/o título de la canción:
A B C D E F G H I J K L M N O P Q R S T U V W X Y Z 0 1 2 3 4 5 6 7 8 9 / Top 100 tabs
Categorías
Usuarios
usuario:
Darse de alta
password:
Artistas más visitados
Publicidad
TOP acordes y tablaturas de Metallica


Estás en: Inicio > Letra M > Acordes y tablaturas de Metallica > Nothing Else Matters Solo
Nothing Else Matters Solo
de Metallica
Puntúa este acorde/tab:      
(0.6/5)
Reportar este acorde/tab
  Añadir a tus favoritos
  Imprimir

metallica
nothing else matters
by alejandro villanueva

1|--------------------------------------------------------------------12--------
2|-15---------------------------------------------------------------12----------
3|-14b(16)(16)-r(14)-12-14-12-11h12p11----11--------12-14-12-14b(16)------14b(16
4|-------------------------------------14----12s(14)----------------------------
5|------------------------------------------------------------------------------
6|------------------------------------------------------------------------------

1|9s(15)14--15-14s(17)17-15-14h15p14s(12)--15-14----------------------12-
2|--------12-----------------------------12------12-----------------12---
3|--------------------------------------------------12-14-12-14b(16) ----
4|-----------------------------------------------------------------------
5|-----------------------------------------------------------------------
6|-----------------------------------------------------------------------

1|---------------------------------------------------
2|-15-15b(17)-----12h15p12s(7)s(5)--5s(7)s(8)s(12)-
3|---------------------------------7---------------
4|-------------------------------------------------
5|-------------------------------------------------
6|-------------------------------------------------


and thats it i hope you enjoy it like i do!
i think thats 100% right but if you
have any coments or questions you want to tell me
my e-mail is live_35@hotmail.com
		   
AcordesyTabs.com © 2008 Acordes y Tablaturas para guitarra. Tabs and Chords for guitar. Aviso Legal - Contacto
El uso de este sitio está sujeto a la aceptación de los términos y condiciones (38 usuarios online)