tablaturas, partituras y acordes para guitarra
Busca por banda/artista:
 
y/o título de la canción:
A B C D E F G H I J K L M N O P Q R S T U V W X Y Z 0 1 2 3 4 5 6 7 8 9 / Top 100 tabs
Categorías
Usuarios
usuario:
Darse de alta
password:
Artistas más visitados
Publicidad
TOP acordes y tablaturas de Silverchair


Estás en: Inicio > Letra S > Acordes y tablaturas de Silverchair > Luv your life
Luv your life
de Silverchair
Puntúa este acorde/tab:      
(0.2/5)
Reportar este acorde/tab
  Añadir a tus favoritos
  Imprimir
Afinação: e B G D A E      

C
You don't know the truth
Cmaj       F 
and I love your life
C
And you don't know the truth 
Cmaj       F
and I love your life


C
Thrust the candle 
             Fm         C
to the dark of your disease
C
Burn the fishplate
         Fm     C
Execute ill memories
C
Labyrynth of sympathy
               Fm              F 
In which I'm lost and can't leave


C
And too much truth
              Fm 
Over shadows the time lies
C
Coz what lies beneath the clouds
             Fm 
is an altered perception
C
And i'll pay for sanity
             Fm        F 
But sanity don't come cheap


C
You don't know the truth
Cmaj            F 
and I love your life
C
And you don't know the truth 
Cmaj            F
and I love your life

  G         Am F       C
 | -3--3-3-3/5-5-1-1-1-1-0-0-0- | 4x
 | -3--3-3-3/5-5-1-1-1-1-1-1-1- | 
 | -4--4-4-4/5-5-2-2-2-2-0-0-0- | 
 | -5--5-5-5/7-7-3-3-3-3-2-2-2- | 
 | -5--5-5-5/7-7-3-3-3-3-3-3-3- | 
 | -3--3-3-3/5-5-1-1-1-1------- | 

Du Du du.....

(Piano faz a base o Refrão) 
C
You don't know the truth
Cmaj            F
and I love your life
C
You don't know the truth
Cmaj           F
and I love your life


 D#                              F
Flinch against the fire but this ain't winter 
                     D#
And I'm all by myself the way I wanna be 
                       F                  Bb
Where I'm content to be to be all by myself 
                             C
But frozen eyes are bound to melt 

  G        Am  F        C
 | -3--3-3-3/5-5-1-1-1-1-0-0-0- | 4x
 | -3--3-3-3/5-5-1-1-1-1-1-1-1- | 
 | -4--4-4-4/5-5-2-2-2-2-0-0-0- | 
 | -5--5-5-5/7-7-3-3-3-3-2-2-2- | 
 | -5--5-5-5/7-7-3-3-3-3-3-3-3- | 
 | -3--3-3-3/5-5-1-1-1-1------- | 

Du Du du.....

C
You don't know the truth
Cmaj           F
and I love your life
C
And you don't know the truth 
Cmaj           F
and I love your life

   C          Cmaj    F   C#          F#     F F# G
 | -0-0-0-0-0-0-0-0-0-0-1-1-4-4-4-4-4-4-2-2-2--1-2-3- | 
 | -1-1-1-1-1-1-0-0-0-0-1-1-6-6-6-6-6-6-2-2-2--1-2-3- | 
 | -0-0-0-0-0-0-0-0-0-0-2-2-6-6-6-6-6-6-3-3-3--2-3-4- | 
 | -2-2-2-2-2-2-2-2-2-2-3-3-6-6-6-6-6-6-4-4-4--3-4-5- | 
 | -3-3-3-3-3-3-3-3-3-3-3-3-4-4-4-4-4-4-4-4-4--3-4-5- | 
 | ---------------------1-1-------------2-2-2--1-2-3- | 
 And you don't know the truth and I love your life

  C        F
 | -0-0-0-0-1-1-1--------- | x2
 | -1-1-1-1-1-1-1--------- | 
 | -0-0-0-0-2-2-2--------- | 
 | -2-2-2-2-3-3-3-5/7-5-3- | 
 | -3-3-3-3-3-3-3-x/x-x-x- | 
 | ---------1-1-1-3/5-3-1- | 

C                F
You dont know the truth
C                  F                    C# F#
You don't know the truth and I love your life 
 |  F  |  F# , |  G  | 

  C        F
 | -0-0-0-0-1-1-1--------- | x2
 | -1-1-1-1-1-1-1--------- | 
 | -0-0-0-0-2-2-2--------- | 
 | -2-2-2-2-3-3-3-5/7-5-3- | 
 | -3-3-3-3-3-3-3-x/x-x-x- | 
 | ---------1-1-1-3/5-3-1- | 
 You dont know the truth

  C       F               B     Bb F
 | -0-0-0-0-1-1-1-1-1-1-1-1-2-2-2--1-1-1-1-1- | 
 | -1-1-1-1-1-1-1-1-1-1-1-1-4-4-4--3-1-1-1-1- | 
 | -0-0-0-0-2-2-2-2-2-2-2-2-4-4-4--3-2-2-2-2- | 
 | -2-2-2-2-3-3-3-3-3-3-3-3-4-4-4--3-3-3-3-3- | 
 | -3-3-3-3-3-3-3-3-3-3-3-3-2-2-2--1-3-3-3-3- | 
 | ---------1-1-1-1-1-1-1-1----------1-1-1-1- | 
 And you dont know the truth

termina
 | ------------- | 
 | ------------- | 
 | -3-4-5-2-3-4- | 
 | -4-5-6-3-4-5- | 
 | -4-5-6-3-4-5- | 
 | -2-3-4-1-2-3- |  		   
AcordesyTabs.com © 2008 Acordes y Tablaturas para guitarra. Tabs and Chords for guitar. Aviso Legal - Contacto
El uso de este sitio está sujeto a la aceptación de los términos y condiciones (33 usuarios online)