tablaturas, partituras y acordes para guitarra
Busca por banda/artista:
 
y/o título de la canción:
A B C D E F G H I J K L M N O P Q R S T U V W X Y Z 0 1 2 3 4 5 6 7 8 9 / Top 100 tabs
Categorías
Usuarios
usuario:
Darse de alta
password:
Artistas más visitados
Publicidad
TOP acordes y tablaturas de Slayer


Disorder
de Slayer
Puntúa este acorde/tab:      
(4.3/5)
Reportar este acorde/tab
  Añadir a tus favoritos
  Imprimir
E--------------------------------------------------
B--------------------------------------------------
G--------------------------------------------------
D-------------9-----------------------------------
A-2-2-2-2-2-2-7--2-2-2-2--10~---7~----------------
E-0-0-0-0-0-0-----0-0-0-0--------------------------
PM...........     .......


Chorus
E--------------------------------------------------
B--------------------------------------------------
G--------------------------------------------------
D--5-3--7----------------9-------------7--X2-----
A--3-2--5---2-2-2-2-2-2--7-2-2-2-2-2-2-9---------
E-----------0-0-0-0-0-0-----0-0-0-0-0-0------------

Interlude 1  (WAAAAAAR!!!!)
E----------------------------------------------------------------------------
B----------------------------------------------------------------------------
G----------------------------------------------------------------------------
D-------------------------------------------------------/1010101010101010----
A----------------------------------------------------------------------------
E--3h55555555-3h5555555555-3h55555555-3h5555-3h55555-------------------------

E----------------------------------------------
B----------------------------------------------
G----------------------------------------------
D---5-5-5-5-5-5-5------------------------------
A---3-3-3-3-3-3-3-7-7-5-7-7--10-7-7-5-7-7------
E-----------------5-5-3-5-5--8--5-5-3-5-5------

E-----------------------------------------|-------------------------
B-----------------------------------------|-------------------------
G-----------------------------------------|-------------------------
D--------------------------------------X2-|-------------------------
A--333333333333-7-7-5-7-7-10-7-7-5-7-7----|---5-3-let ring--/5---x/-
E---------------5-5-3-5-5-8--5-5-3-5-5----|---3-1-----------/3---x/-
              Pm.....................

Interlude 2
E---------------------------------------------------
B---------------------------------------------------
G---------------------------------------------------
D---------------------------------------------------
A---------------------------5-7---------------------
E-1p000000-1p00000-1p00000--3-5---------------------

E---------------------------------------------------
B---------------------------------------------------
G---------------------------------------------------
D---------------------------------------------------
A-44444444444--6-7-7-4444444444-7-6-6---------------
E-22222222222--4-5-5-2222222222-5-4-4---------------

-->  EEEEE G A EEEE A G

* Hey Ho Let´s Go... Anibaldos *		   
AcordesyTabs.com © 2008 Acordes y Tablaturas para guitarra. Tabs and Chords for guitar. Aviso Legal - Contacto
El uso de este sitio está sujeto a la aceptación de los términos y condiciones (87 usuarios online)