tablaturas, partituras y acordes para guitarra
Busca por banda/artista:
 
y/o título de la canción:
A B C D E F G H I J K L M N O P Q R S T U V W X Y Z 0 1 2 3 4 5 6 7 8 9 / Top 100 tabs
Categorías
Usuarios
usuario:
Darse de alta
password:
Artistas más visitados
Publicidad
TOP acordes y tablaturas de Smashing pumpkins


Estás en: Inicio > Letra S > Acordes y tablaturas de Smashing pumpkins > Stand inside your love
Stand inside your love
de Smashing pumpkins
Puntúa este acorde/tab:      
(9.3/5)
Reportar este acorde/tab
  Añadir a tus favoritos
  Imprimir
eb | ---------------------------------- | 
Bb | -------3------3---------------3--- | 
Gb | ---------0------0---0-------0----- | 
Db | -----4-----4------4-------4------- |   2x
Ab | ---------------------------------- | 
Eb | -----------------------0---------- | 

eb | -------------------------------------------------0-- | 
Bb | -------3------3--------------3-----3-------------3-- | 
Gb | ---------2------2---2------2---------2------2----2-- | 
Db | -----------0------0------2-------------0----2------- | 
Ab | -----2-----------------0---------2----------0------- | 
Eb | ---------------------------------------------------- | 

Tuning : E A D G B E      
 
Riff  
You and me, meant to be 
Immutable, Impossible 
It's destiny, pure lunacy 
Incalculable, insufferable 
 
G           Bm
And for the last time
D9       A9
You're everything
       G         Bm   
That I want, and ask for
D9             A9
You're all that I dreamed
 

Em

D9        A9          Em
Who wouldn't be the one you love?
D9        A9             Em
Who wouldn't stand inside your love? 
D9     A9         Em
Protected and the lover of... 
 
Riff 

A pure soul, and beautiful you 

Don't understand, don't feel me now 

I will breathe, for the both of us 

Travel the world, traverse the skies 

Your home is here, within my heart 
 

G           Bm
And for the first time
D9        A9
I feel as though I am reborn 
G  Bm
In my mind
D9     A9            Em
Recast as child and mystic sage 
 

D9        A9          Em
Who wouldn't be the one you love? 
D9        A9             Em
Who wouldn't stand inside your love? 
D9  A9  Em 
 

Solo
 

Em                      D9       A9          Em
And for the first time, I'm telling you how much I need and bleed for 
D9      A9           G
Your every move and waking sound 
Bm          D9        A9            G
In my time, I'll wrap my wire around your heart 
    Bm         D9       A9   Em
and your mind, you're mine forever now. 
 

D9        A9          Em
Who wouldn't be the one you love and live for? 
D9        A9             Em
Who wouldn't stand inside your love and die for? 
D9        A9          Em
Who wouldn't be the one you love? 		   
AcordesyTabs.com © 2008 Acordes y Tablaturas para guitarra. Tabs and Chords for guitar. Aviso Legal - Contacto
El uso de este sitio está sujeto a la aceptación de los términos y condiciones (25 usuarios online)