tablaturas, partituras y acordes para guitarra
Busca por banda/artista:
 
y/o título de la canción:
A B C D E F G H I J K L M N O P Q R S T U V W X Y Z 0 1 2 3 4 5 6 7 8 9 / Top 100 tabs
Categorías
Usuarios
usuario:
Darse de alta
password:
Artistas más visitados
Publicidad
TOP acordes y tablaturas de Smashing pumpkins


Window paine
de Smashing pumpkins
Puntúa este acorde/tab:      
(0.2/5)
Reportar este acorde/tab
  Añadir a tus favoritos
  Imprimir
Bass and drums open:

|-----------------------------
|-----------------------------
|-----------------------------
|-7-0---7-0---7-0---7-0-------

Riff 1

G1 - Tremolo, clean

  Window...     pay..ayne

|-----------------------------------------------
|-----------------------------------------------
|--------9hbr-----------------------------------
|-9hb-9---------7----6--------------------------
|-------------------------7hbr------5-----7-----
|---------------------------------0-----0-------

Riff 2

  Do..gonna do       and say..gonna say

|-0---0-------0----------0----0-----------------
|-3---0---------0--------3----0--------------0--
|-2---1-----------1------2----1------------1----
|-0---2-------------2----0----2----------2------
|-0---2------------------0----2--------2--------
|-----0-----------------------0-----------------

  Do..gonna do      yeah start today    start today..

|-0---0-------0----------0----3----0-----------------
|-3---0---------0--------3----3----0-----------------
|-2---1-----------1------2----0----2-----------------
|-0---2-------------2----0----0----2-----------------
|-0---2------------------0----X----0-----------------
|-----0-----------------------3----------------------

Riff 2

G1 (same) G2 lightly distorted

|------------------------------------------------
|------------------------------------------------
|-7---9---9hbr---7---9----------7---9------------
|-7---9----------7---9----------7---7------------
|-5---7----------5---7---7hbr---5---7------------
|-----0--------------0--------------0------------ etc...

|------------------------------------------------
|------------------------------------------------
|-7-7-7-9---9hbr---7-7-7-9----------7-7-7-9------
|-7-7-7-9----------7-7-7-9----------7-7-7-7------
|-5-5-5-7----------5-5-5-7---7hbr---5-5-5-7------
|-------0----------------0----------------0------ etc...

Riff 3

Both guitars heavy distortion

|-0---0-------0---0----------------------------------
|-3---0-------3---0----------------------------------
|-2---1-------2---1----------------------------------
|-0---2-------0---2----------------------------------
|-0---2-------0---2----------------------------------
|-----0-----------0----------------------------------

after the pause -> drum roll:

|-0---0-------0---0----------------------------------
|-3---0-------3---0----------------------------------
|-2---1-------2---1----------------------------------
|-0---2-------0---2----------------------------------
|-0-0-2-------0-0-2----------------------------------
|---0-0---------0-0----------------------------------

after long pause and Billy's monologue and Jimmy's solo:

|-0---0---------0---0--------------------------------
|-0---0-X-X-X-X-3---3-X-X-X-X------------------------
|-1---1-X-X-X-X-2---2-X-X-X-X------------------------
|-2-2-2-X-X-X-X-0-0-0-X-X-X-X------------------------
|-2-2-2-X-X-X-X-0-0-0-X-X-X-X--ect...----------------
|-0-0-0----------------------------------------------

Song ends on E open and G (i think) pitched feedback.		   
AcordesyTabs.com © 2008 Acordes y Tablaturas para guitarra. Tabs and Chords for guitar. Aviso Legal - Contacto
El uso de este sitio está sujeto a la aceptación de los términos y condiciones (17 usuarios online)