tablaturas, partituras y acordes para guitarra
Busca por banda/artista:
 
y/o título de la canción:
A B C D E F G H I J K L M N O P Q R S T U V W X Y Z 0 1 2 3 4 5 6 7 8 9 / Top 100 tabs
Categorías
Usuarios
usuario:
Darse de alta
password:
Artistas más visitados
Publicidad
TOP acordes y tablaturas de Megadeth


Estás en: Inicio > Letra M > Acordes y tablaturas de Megadeth > No more mr. nice guy
No more mr. nice guy
de Megadeth
Puntúa este acorde/tab:      
(0.6/5)
Reportar este acorde/tab
  Añadir a tus favoritos
  Imprimir
Riff 1
e|-5--5--3----3--3----------------|
B|-5--5--5----3--3--------3-------|
G|------------------0-2/4---4p2p0-|
D|--------------------------------|
A|--------------------------------|
E|--------------------------------|

e|------------------------------|
B|------------------------------|
G|-2--2--0----0--0--------------|
D|-2--2--2----0--0--------------|
A|--------------------2-5-2p0---|
E|------------------3---------3-|


Riff 2
Guitar 1                    x2
e|---------------------------|
B|---------------------------|
G|---------------------------|
D|-4------4-3-2--------------|
A|-2--2-2-2-1-0-2------------|
E|--------------0--0-0-0-0-0-|
      * *          * * * * *
e|-----------------------------|
B|-----------------------------|
G|-----------------------------|
D|-4------4-3-2----------------|
A|-2--2-2-2-1-0-2--------------|
E|--------------0--0-0-0-0-0-0-|
      * *          * * * * * *

Guitar 2
e|------------------------|
B|-----------------10b12~-|
G|-9b11--9b11r9-7---------|
D|------------------------|
A|------------------------|
E|------------------------|

e|--------------------------------10--------|
B|--------------------------10b12----10b12~-|
G|-9b11--9b11-9b11-9b11r9-7-----------------|
D|------------a-----------------------------|
A|------------------------------------------|
E|------------------------------------------|

e|---------------------------------------|
B|-----------------10b12-----------------|
G|-9b11--9b11r9-7--------9b11r9-7-9b11r9-|
D|---------------------------------------|
A|---------------------------------------|
E|---------------------------------------|


Riff 3
Guitar 1
e|-------------------------------------------|
B|-------------------------------------------|
G|-9------------9-------------7--------------|
D|-7------------6-------------5--------------|
A|----0-0-0-0-0----0-0-0-0-0-----0-0-0-0-0-0-|
E|-------------------------------------------|
      * * * * *    * * * * *     * * * * * *
   'I used to be such...'
e|-------------|
B|-------------|
G|-------------|
D|--4-4--7--9--|
A|--2-2--5--7--|
E|-------------|
   '...me...'

Guitar 2                                         x2
e|------------------------------------------------|
B|------------------------------------------------|
G|------------------------------------------------|
D|-7~-----------6~-------------5~-------------4~--|
A|------------------------------------------------|
E|------------------------------------------------|

Guitar 3
e|--------------------------------------------------------|
B|--------------------------------------------------------|
G|-----------------------------------------4-4--7--9b11r9-|
D|-7~-----------6~-----------5~---------------------------|
A|--------------------------------------------------------|
E|--------------------------------------------------------|

e|-----------------------------------------------------------|
B|-----------------------------------------------------------|
G|-------9b11r9-------9b11r9-------9b11r9--4-4--7--9--9b11~~-|
D|-7~-----------6~-----------5~------------------------------|
A|-----------------------------------------------------------|
E|-----------------------------------------------------------|



Riff 4
Guitar 1
e|------------------------------------|
B|------------------------------------|
G|------------------------------------|
D|-11-11---11-10-9---------------7--7-|
A|--9--9----9--8-7-9--9----9-8-7-5--5-|
E|-----------------7--7----7-6-5------|
   'But I got no friends...'
e|-----------------------|
B|-----------------------|
G|---------------------9-|
D|-7-6-7-9--9----9-7-9-7-|
A|-5-4-5-7--7----7-5-7---|
E|-----------------------|
   '...they can't be seen...'

Guitar 2
e|--------------------------------------|
B|--------------------------------------|
G|------------------------------9-11-9~-|
D|---------------------------12---------|
A|--------------------------------------|
E|--------------------------------------|

e|-----------------------------------------|
B|-----------------------------------12b14-|
G|------------------------------9-11-------|
D|---------------------------12------------|
A|-----------------------------------------|
E|-----------------------------------------|


Riff 5
Guitar 1
e|-----------------------------|
B|-------------------10--10-9--|
G|--------------------9---9-9--|
D|-11-11--7-7--9-9-------------|
A|--9--9--5-5--7-7-------------|
E|-----------------------------|

e|---------------------------|
B|---------------------------|
G|--------------------9--13--|
D|-11-11--7-7--9--11--7--11--|
A|--9--9--5-5--7---9---------|
E|---------------------------|

Guitar 2
e|----------------------------|
B|----------------------------|
G|----------------------------|
D|-11-11--7-7--9-9------------|
A|--9--9--5-5--7-7----------7-|
E|------------------10-9-10---|

e|---------------------------|
B|---------------------------|
G|--------------------9--13--|
D|-11-11--7-7--9--11--7--11--|
A|--9--9--5-5--7---9---------|
E|---------------------------|

Guitar 3
e|-------------------------------|
B|-(14)r12-10-9------------------|
G|--------------11-9--------9-11-|
D|-----------------------12------|
A|-------------------------------|
E|-------------------------------|

e|----------------------------|
B|-10-10-10-9---------10--14~-|
G|------------11-9-11---------|
D|----------------------------|
A|----------------------------|
E|----------------------------|

e|-----------------------------|
B|-10-10-10-9------------------|
G|------------11-9--------9-11-|
D|---------------------12------|
A|-----------------------------|
E|-----------------------------|

e|----------------------------|
B|-10-10-10-9---------10--14~-|
G|------------11-9-11---------|
D|----------------------------|
A|----------------------------|
E|----------------------------|


Next section:  'I'm not hard to get along with...'

Guitar 1 plays Riff 1
Guitar 2 plays:
e|------------------------------------|
B|-(14~~~)---------------------(14)--|
G|----[last note from chorus]---------|
D|------------------------------------|
A|------------------------------------|
E|------------------------------------|

e|----------------------------------|
B|-17b19r17-------------------------|
G|----------15b17r15----------------|
D|-------------------16~~----(16)--|
A|----------------------------------|
E|----------------------------------|


Play Riff 4  'But I got no friends...'
Play Riff 5  'No more Mr. nice guy...'


Riff 6 (Solo Rhythm)
e|-----------------------------|
B|-----------------------------|
G|-----------------------------|
D|-----------------------------|
A|-5------------5--------------|
E|-3--0---0-0-0-3--0-0-0-0-0-0-|
          * * *    * * * * * *
                                x2
e|-------------------------------|
B|-------------------------------|
G|-------------------------------|
D|-------------------------------|
A|-5--------------5--------------|
E|-3--0-0-0-0-0-0-3--0-0-0-0-0-0-|
      * * * * * *    * * * * * *
e|-------------------------------|
B|-------------------------------|
G|-------------------------------|
D|-----------------------------2-|
A|-5------5------5------5------0-|
E|-3--0-0-3--0-0-3--0-0-3--0-0---|
      * *    * *    * *    * *


Solo (Mustaine)
e|-17p12--12------17p12--12-----17p12--12------|
B|------15-------------15------------15--------|
G|----------15p14----------15p14---------15p14-|
D|---------------------------------------------|
A|---------------------------------------------|
E|---------------------------------------------|

e|-17p12--12------17p12--------|
B|------15-------------15------|
G|----------15p14------14b15~~-|
D|-----------------------------|
A|-----------------------------|
E|-----------------------------|

e|----------------------------------------|
B|----------------------------------------|
G|-12h14p12---12h14p12---12h14-12h14p12---|
D|---------14---------14--a-----a------14-|
A|----------------------------------------|
E|----------------------------------------|

e|-------------------------------------------------|
B|-------------------------------------------------|
G|-12----------------------------------------------|
D|----15-14-12----12-14p13p12-13p12----------------|
A|-------------14------------------14-13-14p13-----|
E|---------------------------------------------14-|

e|-------------------------------------|
B|-------------------------------------|
G|-------------------------------------|
D|-------------------------------------|
A|-------------------------------------|
E|-------------------------------------|

e|-------------------------------------|
B|-------------------------------------|
G|-------------------------------------|
D|-------------------------------------|
A|-------------------------------------|
E|-------------------------------------|

e|-------------------------------------|
B|-------------------------------------|
G|-------------------------------------|
D|-------------------------------------|
A|-------------------------------------|
E|-------------------------------------|

e|-------------------------------------|
B|-------------------------------------|
G|-------------------------------------|
D|-------------------------------------|
A|-------------------------------------|
E|-------------------------------------|

End Solo


Riff 7
Guitar 1 (Clean)
e|--9--------9--------7--------7--------|
B|-10--------9--------8--------7--------|
G|--9--------9--------7--------7--------|
D|--------------------------------------|
A|--------------------------------------|
E|--------------------------------------|
   'My dog bit me...'

Guitar 2 (Acoustic)
e|--0--0--0--0-----0-0-0-0-----0-0-0-0-----0-0-0-0-----|
B|-10-10-10-10-----9-9-9-9-----8-8-8-8-----7-7-7-7-----|
G|--9--9--9--9-...-9-9-9-9-...-7-7-7-7-...-7-7-7-7-...-|
D|-----------------------------------------------------|
A|-----------------------------------------------------|
E|-----------------------------------------------------|
   'Mom's been thrown out...'

Guitar 3 (Distortion, comes in later)
e|------------|
B|------------|
G|------------|
D|-4-4--7--9--|
A|-2-2--5--7--|
E|------------|
   '...rose...'
e|---------------------------------|
B|---------------------------------|
G|-9-9-9-9-9-9-9-9-9-9-9-9-9-9-9-9-|
D|-7-7-7-7-7-7-7-7-6-6-6-6-6-6-6-6-|
A|---------------------------------|
E|---------------------------------|
   * * * * * * * * * * * * * * * *
   'Reverend Smith...'
e|-----------------------------|
B|-----------------------------|
G|-7-7-7-7-7-7-7-7-------------|
D|-5-5-5-5-5-5-5-5--4-4--7--9--|
A|------------------2-2--5--7--|
E|-----------------------------|
   * * * * * * * *
   '...punched me in the nose...'

Lead into next section:
Guitar 1
e|----------|
B|----------|
G|----------|
D|----------|
A|--7----4--|
E|--5----2--|
 '...nice guy!'

Guitar 2
e|-----------------------------------|
B|-10-9-7-9-10-9-7-9-10-9-7-9-10-...-|
G|-----------------------------------|
D|-----------------------------------|
A|-----------------------------------|
E|-----------------------------------|
   'No more, nice guy!'


Riff 5a
Guitar 1
e|---------------------------|
B|------------------10--10-9-|
G|-------------------9---9-9-|  ----|
D|-------7-7--9-9------------|      |
A|-7--4--5-5--7-7------------|      |
E|-5--2----------------------|      |
                                    |
e|---------------------------|      |--- Play 1x
B|---------------------------|      |
G|--------------------9--13--|      |
D|-11-11--7-7--9--11--7--11--|  ----|
A|--9--9--5-5--7---9---------|
E|---------------------------|

Play this the rest of the time:
e|----------------------------|
B|-------------------10--10-9-|
G|--------------------9---9-9-|
D|-11-11--7-7--9-9------------|
A|--9--9--5-5--7-7------------|
E|----------------------------|

e|---------------------------|
B|---------------------------|
G|--------------------9--13--|
D|-11-11--7-7--9--11--7--11--|
A|--9--9--5-5--7---9---------|
E|---------------------------|


Guitar 2
e|---------------------------|
B|---------------------------|
G|---------------------------|  ----|
D|-------7-7--9-9------------|      |
A|-7--4--5-5--7-7----------7-|      |
E|-5--2------------10-9-10---|      |
                                    |
e|---------------------------|      |--- Play 1x
B|---------------------------|      |
G|--------------------9--13--|      |
D|-11-11--7-7--9--11--7--11--|  ----|
A|--9--9--5-5--7---9---------|
E|---------------------------|

Play this the rest of the time:
e|----------------------------|
B|----------------------------|
G|----------------------------|
D|-11-11--7-7--9-9------------|
A|--9--9--5-5--7-7----------7-|
E|------------------10-9-10---|

e|---------------------------|
B|---------------------------|
G|--------------------9--13--|
D|-11-11--7-7--9--11--7--11--|
A|--9--9--5-5--7---9---------|
E|---------------------------|


Guitar 3
e|-----------------------------|
B|-10-10-10-9------------------|
G|------------11-9--------9-11-|
D|---------------------12------|
A|-----------------------------|
E|-----------------------------|

e|----------------------------|
B|-10-10-10-9---------10--14~-|
G|------------11-9-11---------|
D|----------------------------|
A|----------------------------|
E|----------------------------|


Ending:
Guitar 1
e|-----------------------------|
B|-----------------------------|
G|--------9--13----------9--13-|
D|-9--11--7--11---9--11--7--11-|
A|-7---9----------7---9--------|
E|-----------------------------|

e|-------------------------------------|
B|-------------------------------------|
G|--------9--13------------------------|
D|-9--11--7--11------------------------|
A|-7---9-----------7----------------7--|
E|-----------------5----------------5--|

Guitar 2
e|-------------------------------------------------|
B|------10--14~-------10--14~-------10--14--14b17~-|
G|-9-11----------9-11----------9-11----------------|
D|-------------------------------------------------|
A|-------------------------------------------------|
E|-------------------------------------------------|

Guitar 3 (comes in with last note of guitar 2)
e|-------------------------------------|
B|-------------------------------------|
G|-------------------------------------|
D|-------------------------------------|
A|-------------------------------------|
E|-------------------------------------|

e|-------------------------------------|
B|-------------------------------------|
G|-------------------------------------|
D|-------------------------------------|
A|-------------------------------------|
E|-------------------------------------|

e|-------------------------------------|
B|-------------------------------------|
G|-------------------------------------|
D|-------------------------------------|
A|-------------------------------------|
E|-------------------------------------|		   
AcordesyTabs.com © 2008 Acordes y Tablaturas para guitarra. Tabs and Chords for guitar. Aviso Legal - Contacto
El uso de este sitio está sujeto a la aceptación de los términos y condiciones (26 usuarios online)