tablaturas, partituras y acordes para guitarra
Busca por banda/artista:
 
y/o título de la canción:
A B C D E F G H I J K L M N O P Q R S T U V W X Y Z 0 1 2 3 4 5 6 7 8 9 / Top 100 tabs
Categorías
Usuarios
usuario:
Darse de alta
password:
Artistas más visitados
Publicidad
TOP acordes y tablaturas de Metallica


One
de Metallica
Puntúa este acorde/tab:      
(2.1/5)
Reportar este acorde/tab
  Añadir a tus favoritos
  Imprimir
Metallica-One   (Part 1)
He Who Tabbed Thus: Scorch2099 (Joe B.)
Note: This is not the wholesong, Just the intro w/ the Chorus 
(Riffs not included, but you can figure them out), and Later On in the future I
'll tab the rest of this song which will be

Tempo: Moderately = 108

Battlefield effects last for about 15 seconds, then you start playing

Intro
e----------------|----------------|----------------|----------------|-----------
B----------------|----------------|----------------|----------------|-----------
G----------------|----------------|----------------|-------------0--|-----------
D---4---0--------|---4---0--------|---4---0--------|---4---0--------|---4---0---
A-2---2----------|----------------|-2---2----------|----------------|-2---2-----
E----------------|-3---3----------|----------------|-3---3----------|-----------

e----------------|----------------|----------------|----------------|-----------
B----------------|----------------|----------------|----------------|-3-2----3-2
G----------------|----------------|----------------|-------2--4-----|-----4-----
D---4---0--------|---4---0--------|----------------|---2-4----------|-----------
A-0---0----------|----------------|----2----2------|----------------|-----------
E----------------|-3---3----------|--0----2--------|----------------|-----------

e----------------|------------------------------|
B-3-2------------|------------------------------|
G-----4----------|-11-9----97--7-6-0-2-6-4-0-2-|
D----------------|------12----------------------|
A----------------|------------------------------|
E----------------|------------------------------|

Chorus

 Hold  my breath as I wish for death.__        Oh please God, help  me!_________

e-----------------------------------|------------------------------|------------
B-----------------------------------|------------------------------|------------
G-0-----2----4----2-0---------4-----|-2---4--6--4-----2----4-----6-|-0-----2-4-2
D-0-----2----4----2-0----4----4-----|-2---4--6--4-----2----4-----6-|-0-----2-4-2
A-------0----2-----------4----2-----|-0---2--4--2-----0----2-----4-|-------0-2-0
E-3-----------------3----2----------|------------------------------|-3----------
		   
AcordesyTabs.com © 2008 Acordes y Tablaturas para guitarra. Tabs and Chords for guitar. Aviso Legal - Contacto
El uso de este sitio está sujeto a la aceptación de los términos y condiciones (16 usuarios online)