tablaturas, partituras y acordes para guitarra
Busca por banda/artista:
 
y/o título de la canción:
A B C D E F G H I J K L M N O P Q R S T U V W X Y Z 0 1 2 3 4 5 6 7 8 9 / Top 100 tabs
Categorías
Usuarios
usuario:
Darse de alta
password:
Artistas más visitados
Publicidad
TOP acordes y tablaturas de The strokes


Estás en: Inicio > Letra T > Acordes y tablaturas de The strokes > Alone together
Alone together
de The strokes
Puntúa este acorde/tab:      
(0.7/5)
Reportar este acorde/tab
  Añadir a tus favoritos
  Imprimir
Guitarra 1:

(riff a)
---------------------------------------------------------------
---------------------------------------------------------------
---------5--------------------------------5--------------------
--------------7------------------------------7----------5--7---
------------------7--7--5--7--------------------7--7-----------
--5--5-----------------------------5--5------------------------


Baixo:

--------5--2---------0--2------
---------------2--2------------
-0--0--------------------------
-------------------------------


Entra a 2a guitarra:
(riff b)
------------------------------------------
------------------------------------------
--12--12--12------10--10--10--------------
----------------etc---------------etc-----
--10--10--10-------8---8---8--------------
------------------------------------------

O baixo sempre fica o mesmo.


Verso:

(riff a)
No choice now, it's too late (riff b)
(riff a)
Let him go, he gave up (riff b)
(riff a)
Don't give up
(riff a)
Lisa said 'Take time for me' (riff b)
(riff a)
Dropping him down to his knees (riff b)
Oh just go. 

(As guitarras alternam entre o Riff A e o Riff B. Quando o vocal está presente,
usa-se o Riff B. Quando não está, usa-se o A.)

No final,

Guitarra 1,

----------------------------------------
----------------------------------------
--14--14----14--14--14------------------
-------------------------------etc------
--12--12----12--12--12------------------
----------------------------------------


o refrão:

------------------------------------------------------
------------------------------------------------------
---14--14--14--14------11-11--11-11-11----------------
----------------------etc------------------------etc--
---12--12--12--12-------9--9----9--9--9---------------
------------------------------------------------------

Guitarra 2,

-------------------------------------------------------------------------------------
-------------------------------------------------------------------------------------
-------------------------------------------------------------------------------------
-------------------------------------------------------------------------------------
--12--12--12--12--12--12--12--12--10--10--10--10--10--10--10--10--14--14--14--14--14-
-------------------------------------------------------------------------------------

-----------------------------------------------
-----------------------------------------------
-----------------------------------------------
-----------------------------------------------
-14--14--14--9--9--9--9--9--9--9--9---etc------
-----------------------------------------------



Refrão:

Take me away, see I've got to explain
Things they are changing such a permanent way
Life seems unreal, can we go back to your place?
Ah, you drink to much, makes me drink the same.


o verso é do mesmo jeito:

People try, felt so right
Giving themselves good advice
Looking down sometimes felt nice.

Faz a parte do refrão, do mesmo jeito também:

He knows its just a fact to kill to survive
He's earning dollars when you're giving your life
Let some poor soul work 3 hours a day
The world is over and i don't care 'cause,


Refrão:

Take me away, see I've got to explain
Things they are changing such a permanent way
Life seems unreal, can we go back to your place?
Ah, you drink to much, makes me drink the same.

Solo (1a parte)

-------------------------------------------------------------------------------------
----10--10--10--10--10--13--13--13--13--13-------------------------13--13--13--13--13
---------------------------------------------------11--11--11--11--11----------------
-------------------------------------------------------------------------------------
-------------------------------------------------------------------------------------
-------------------------------------------------------------------------------------


-------------------------------------------------------------------------------------
--10--10--10--10--10--13--13--13--13--13--------------------------13--13--13--13--13-
----------------------------------------------------------11--11--11--11--11---------
-------------------------------------------------------------------------------------
-------------------------------------------------------------------------------------
-------------------------------------------------------------------------------------


Solo (2a parte)

-------------------------------------------------------------------------------------
--13--10--13--10---------------------------------------------------------------------
----------------------9--12--9--12--9--12--9--12--9----------------------------------
----------------------------------------------------------10--12--10--12--10--12--10-
-------------------------------------------------------------------------------------
-------------------------------------------------------------------------------------


-------------------------------------------------------------------------------------
-------------------------------------------------10--11--10--11--10--11--10--11--10--
-----------9--12--9--12--9--12--9--12--9---------------------------------------------
-12--10------------------------------------------------------------------------------
-------------------------------------------------------------------------------------
-------------------------------------------------------------------------------------




-------------------------------------------------------------------------------------
-------------------------------------------------------------------------------------
---9--12--9--12--9--12--9--12--9---------------------------------------------9--12--9
--------------------------------------10--12--10--12--10--12--10--12--10-------------
-------------------------------------------------------------------------------------
-------------------------------------------------------------------------------------


--------------------------------------------------------------------
--------------------------------10--11--10--11--10--11--10--11--10--
--12--9--12--9--12--9-----------------------------------------------
--------------------------------------------------------------------
--------------------------------------------------------------------
--------------------------------------------------------------------


Repete o solo, enquanto entra o vocal:

On the first time that i met your friends
A second time I thought it would last
We all like it a little different.

No final do solo, termina assim:
----------------------------------------------
----------------------------------------------
--14-rb-12---9---9--rb--7--5--7---------------
-------------------------------------7--------
----------------------------------------------
----------------------------------------------

E a guitarra finaliza:

-------------------------------------------------------------------------
-------------------------------------------------------------------------
---------5--------------------------------5------------------------------
--------------7------------------------------7----------5--7-----------7-
------------------7--7--5--7--------------------7--7---------------------
--5--5-----------------------------5--5--------------------------------5-		   
AcordesyTabs.com © 2008 Acordes y Tablaturas para guitarra. Tabs and Chords for guitar. Aviso Legal - Contacto
El uso de este sitio está sujeto a la aceptación de los términos y condiciones (39 usuarios online)