tablaturas, partituras y acordes para guitarra
Busca por banda/artista:
 
y/o título de la canción:
A B C D E F G H I J K L M N O P Q R S T U V W X Y Z 0 1 2 3 4 5 6 7 8 9 / Top 100 tabs
Categorías
Usuarios
usuario:
Darse de alta
password:
Artistas más visitados
Publicidad
TOP acordes y tablaturas de The strokes


Estás en: Inicio > Letra T > Acordes y tablaturas de The strokes > Between love & hate
Between love & hate
de The strokes
Puntúa este acorde/tab:      
(0.5/5)
Reportar este acorde/tab
  Añadir a tus favoritos
  Imprimir
GUITAR Part 1

e | --------5-----------5----------5-----------5---------5-----------5---
B | -----5-----5-----5----5-----5-----5-----5---------5-----5-----5-----5  
G | --6-----------6----------6-----------6---------6-----------6---------

e | --------5-----------5---------2-----------2-----------2-----------2
B | -----5-----5-----5---------3-----3-----3-----3-----3-----3-----3---
G | --4-----------4---------4-----------4-----------4-----------4------

e | --------4-----------4-----------4-----------4--
B | -----5-----5-----5-----5-----5-----5-----5-----
G | --6-----------6-----------6-----------6--------


GUITAR Part 1


I never needed anybody
A
I never needed anybody
D
I never needed anybody
A
I never needed anybody
D
I don't worry about it honey
A
I never needed anybody
D
I never needed anybody
A
He's lying I say
D
He insists, if I may ask why
A
When will we be trying?
D
We stayed up all night
A
Trying trying

Change his mind
A           E
Going to hard
D         E 
But baby I don't mind
A              E
What's listening?
D          E
This time this time
A


*second guitar pretty much plays A and D back and forth until you get to the stuff on top..* 		   
AcordesyTabs.com © 2008 Acordes y Tablaturas para guitarra. Tabs and Chords for guitar. Aviso Legal - Contacto
El uso de este sitio está sujeto a la aceptación de los términos y condiciones (33 usuarios online)