tablaturas, partituras y acordes para guitarra
Busca por banda/artista:
 
y/o título de la canción:
A B C D E F G H I J K L M N O P Q R S T U V W X Y Z 0 1 2 3 4 5 6 7 8 9 / Top 100 tabs
Categorías
Usuarios
usuario:
Darse de alta
password:
Artistas más visitados
Publicidad
TOP acordes y tablaturas de The strokes


I can't win
de The strokes
Puntúa este acorde/tab:      
(0.3/5)
Reportar este acorde/tab
  Añadir a tus favoritos
  Imprimir
Intro and verse;

opening chord; E

Intro; 

B E

intro riff

   B                         E
e|--x-x-x--x-x-x-x-x--x-x--|x-x-x--x-x-x-x-x--x-x
b|--4-4-4--4-4-4-4-4--4-4--|5-5-5--5-5-5-5-5--5-5
g|--6-6-4--4-4-6-6-4--4-4--|6-6-4--4-4-6-6-4--4-4
d|-------------------------|---------------------
a|-------------------------|---------------------
e|-------------------------|---------------------



Verse;

B  E  C#

Bridge;

B  E

Chorus;

("I,,,can't,,,,win")

G#m    C#m     F#

chorus riff

    G#m                 C#m               F#
e|--------------------|------------------|-------------------------------------|
b|-----12----14----12-|------------------|-------------------------------------|
g|--13----13----13----|---15----16----15-|---15----18----15-----15----18----15-|
d|--------------------|14----14----14----|16----16----16-----16----16----16----|
a|--------------------|------------------|-------------------------------------|
e|--------------------|------------------|-------------------------------------|

then back to intro


I couldn't get the solo yet but the chords played under it are G#m and C#m alternating		   
AcordesyTabs.com © 2008 Acordes y Tablaturas para guitarra. Tabs and Chords for guitar. Aviso Legal - Contacto
El uso de este sitio está sujeto a la aceptación de los términos y condiciones (36 usuarios online)