tablaturas, partituras y acordes para guitarra
Busca por banda/artista:
 
y/o título de la canción:
A B C D E F G H I J K L M N O P Q R S T U V W X Y Z 0 1 2 3 4 5 6 7 8 9 / Top 100 tabs
Categorías
Usuarios
usuario:
Darse de alta
password:
Artistas más visitados
Publicidad
TOP acordes y tablaturas de Deftones


Estás en: Inicio > Letra D > Acordes y tablaturas de Deftones > Back to school (mini-maggit)
Back to school (mini-maggit)
de Deftones
Puntúa este acorde/tab:      
(7.1/5)
Reportar este acorde/tab
  Añadir a tus favoritos
  Imprimir
Afinação : DROP C


INTRO (com muito flanger)

D-13------13--------------
A---------10--------------
F-10------10--------------
C-------------------------
G-------------------------
C-------------------------

pegue a batida, não é difícil

Entra riff pesado 
 guitarra 1
D------------------
A------------------
F------------------
C-8-0-0-0-0-0------
G-8-0-0-0-0-0------
C-8-0-0-0-0-0------   
 guitarra 2
D-13~~-------------
A------------------
F-10~~-------------
C------------------
G------------------
C------------------

Verso

D---------------(--13-)
A---------------(-----)
F---------------(--10-)
C-5---4---8---0--------
G-5---4---8---0--------
C-5---4---8---0--------

Refrão

D------------------
A------------------
F------------------
C-8-0-5-4----------
G-8-0-5-4----------
C-8-0-5-4----------

Verso

Refrão

Pós Refrão

D------------------------
A-----------(-8---11--13)
F-----------(-----------)
C-8-0-5-4---(-5---8---10)
G-8-0-5-4----------------
C-8-0-5-4----------------

Intro

Pós Refrão

Refrão

Pós Refrão

Intro		   
AcordesyTabs.com © 2008 Acordes y Tablaturas para guitarra. Tabs and Chords for guitar. Aviso Legal - Contacto
El uso de este sitio está sujeto a la aceptación de los términos y condiciones (37 usuarios online)