tablaturas, partituras y acordes para guitarra
Busca por banda/artista:
 
y/o título de la canción:
A B C D E F G H I J K L M N O P Q R S T U V W X Y Z 0 1 2 3 4 5 6 7 8 9 / Top 100 tabs
Categorías
Usuarios
usuario:
Darse de alta
password:
Artistas más visitados
Publicidad
TOP acordes y tablaturas de Deftones


Estás en: Inicio > Letra D > Acordes y tablaturas de Deftones > Battle-axe
Battle-axe
de Deftones
Puntúa este acorde/tab:      
(0.4/5)
Reportar este acorde/tab
  Añadir a tus favoritos
  Imprimir
1---------------0--------------------|
2-----------3-----3------------------|
3-------0-----0-----0---0--0--0------|4X
4---4-----4-----------4--4---4-4-----|
5-2---2------------------------------|
6---------------------------------000|


1------------------|------------------|------------------|------------------|
2------------------|------------------|------------------|------------------|
3------------------|------------------|------------------|------------------|2X
4-9999999999999999-|-3333333333333333-|-0000000000000000-|-2222222222222222-|
5-9999999999999999-|-3333333333333333-|-0000000000000000-|-2222222222222222-|
6-9999999999999999-|-3333333333333333-|-0000000000000000-|-2222222222222222-|


1------------------------------------|
2------------------------------------|
3------------------------------------|5X
4-9999-9999999-9999999-9999999-99/12-|
5-9999-9999999-9999999-9999999-99/12-|
6-9999-9999999-9999999-9999999-99/12-|


1------------------|------------------|------------------|------------------|
2------------------|------------------|------------------|------------------|
3------------------|------------------|------------------|------------------|2X
4-9999999999999999-|-3333333333333333-|-0000000000000000-|-2222222222222222-|
5-9999999999999999-|-3333333333333333-|-0000000000000000-|-2222222222222222-|
6-9999999999999999-|-3333333333333333-|-0000000000000000-|-2222222222222222-|



1------------------------------------|
2------------------------------------|
3------------------------------------|6X
4-9999-9999999-9999999-9999999-99/12-|
5-9999-9999999-9999999-9999999-99/12-|
6-9999-9999999-9999999-9999999-99/12-|


1------------------|------------------|------------------|------------------|
2------------------|------------------|------------------|------------------|
3------------------|------------------|------------------|------------------|6X
4-9999999999999999-|-3333333333333333-|-0000000000000000-|-2222222222222222-|
5-9999999999999999-|-3333333333333333-|-0000000000000000-|-2222222222222222-|
6-9999999999999999-|-3333333333333333-|-0000000000000000-|-2222222222222222-|


1------------------------------------|
2------------------------------------|
3------------------------------------|4X
4-9999-9999999-9999999-9999999-99/12-|
5-9999-9999999-9999999-9999999-99/12-|
6-9999-9999999-9999999-9999999-99/12-|		   
AcordesyTabs.com © 2008 Acordes y Tablaturas para guitarra. Tabs and Chords for guitar. Aviso Legal - Contacto
El uso de este sitio está sujeto a la aceptación de los términos y condiciones (20 usuarios online)