tablaturas, partituras y acordes para guitarra
Busca por banda/artista:
 
y/o título de la canción:
A B C D E F G H I J K L M N O P Q R S T U V W X Y Z 0 1 2 3 4 5 6 7 8 9 / Top 100 tabs
Categorías
Usuarios
usuario:
Darse de alta
password:
Artistas más visitados
Publicidad
TOP acordes y tablaturas de Deftones


Engine 9
de Deftones
Puntúa este acorde/tab:      
(0.5/5)
Reportar este acorde/tab
  Añadir a tus favoritos
  Imprimir
Riff 1-Palm mute E string during verse 
e||------------------------------x----------------------------------|| 
b||------------------------------0----------------------------------|| 
G||------------------------------0----------------------------------|| 
D||------------------------------0----------------------------------|| 
A||------------------------------x----------------------------------|| 
E||--2-3-2-0-2-3-2-0-2-3-2-0-2-3---2-3-2-0-2-3-2-0-2-3-2-0-2-3-5----|| 
 
Riff 2-also behind 'peers I flow & mother she...' part 
e||------------------------------x----------------------------------|| 
b||------------------------------0----------------------------------|| 
G||------------------------------0----------------------------------|| 
D||------------------------------0----------------------------------|| 
A||--4-5-4-2-4-5-4-2-4-5-4-2-4-5-x-4-5-4-2-4-5-4-2-4-5-4-2-4-5-7----|| 
E||--2-3-2-0-2-3-2-0-2-3-2-0-2-3---2-3-2-0-2-3-2-0-2-3-2-0-2-3-5----|| 
 
Riff 3--Chorus 
e||--------x----||---------------------|| 
b||--------0----||---------------------||	  
G||-------x0----||--3-----2------------||   
D||--4-4--x0----||--3---3-2---2--------|| 
A||--4-4--------||--1---1-0---0-5/7--|| 
E||--2-2--------||--------------3/5--||   
          ** 
Bridge 
e||-----------------------------|| 
b||-----------------------------||  Bass plays  
G||-----------------------------||  this first, 
D||-----------------------------||  then guitar  
A||--4--2-4--2-4--2-4----7/8-2--||  comes in 
E||--2--0-2--0-2--0-2--0-5/6-0--|| 
 
Riff4 
e||-------------------------------|| 
b||-------------------------------|| 
G||-------------------------------||  This might be easier fretting the	 
D||-------------------------------||  Bb & A chords in first position 
A||--4/5----4----4----4/5--7/8-2--||  (zero and 1st fret on A  
E||--2/3-00-2--0-2--0-2/3--5/6-0--|| 
 
Fill 1--before chorus 
e||-------------------------|| 
b||-------------------------|| 
G||-------------------------|| 
D||--3-3-3-3--3-3-3-3--3-3--|| 
A||--3-3-3-3--3-3-3-3--3-3--|| 
E||--1-1-1-1--1-1-1-1--1-1--|| 
     . . . .  . . . .  . .  		   
AcordesyTabs.com © 2008 Acordes y Tablaturas para guitarra. Tabs and Chords for guitar. Aviso Legal - Contacto
El uso de este sitio está sujeto a la aceptación de los términos y condiciones (12 usuarios online)