tablaturas, partituras y acordes para guitarra
Busca por banda/artista:
 
y/o título de la canción:
A B C D E F G H I J K L M N O P Q R S T U V W X Y Z 0 1 2 3 4 5 6 7 8 9 / Top 100 tabs
Categorías
Usuarios
usuario:
Darse de alta
password:
Artistas más visitados
Publicidad
TOP acordes y tablaturas de Deftones


Estás en: Inicio > Letra D > Acordes y tablaturas de Deftones > The boy's republic
The boy's republic
de Deftones
Puntúa este acorde/tab:      
(0.4/5)
Reportar este acorde/tab
  Añadir a tus favoritos
  Imprimir
Intro (listen carefully and you can hear the gentle riff) 
 not positive about intro, mail suggestions. 
D|-------------------------------------------------------------------| 
A|-------------------------------------------------------------------| 
F|-------------------------------------------------------------------| 
C|--7--7h8p7h8-7h8p7h8-7h8p7h8--7--3-3h4p3h4-3h4p3h3-----------------| 
G|-------------------------------------------------------------------| 
C|-------------------------------------------------------------------| 
 
 Break In (0:38) 
D|-------------------------------------------------------------------| 
A|-------------------------------------------------------------------| 
F|-------------------------------------------------------------------| 
C|---0-0-0--12-12-12-5-5-5h9-9-9-9---------------------------------| 
G|---0-0-0--12-12-12-5-5-5h9-9-9-9---------------------------------| 
C|---0-0-0--12-12-12-5-5-5h9-9-9-9---------------------------------| 
 
 Thing (1:10) 
D|-------------------------------------------------------------------| 
A|-------------------------------------------------------------------| 
F|-------------------------------------------------------------------| 
C|--3-3-3-3-3-3-3-3-3-3-3-3--0-0-0-0-0-------------------------------| 
G|--3-3-3-3-3-3-3-3-3-3-3-3--0-0-0-0-0-------------------------------| 
C|--3-3-3-3-3-3-3-3-3-3-3-3--0-0-0-0-0-------------------------------| 
 
 Another Thing (2:13)  the hammer on and pull offs get louder as 
 stephen plays through this riff 
D|-------------------------------------------------------------------| 
A|-------------------------------------------------------------------| 
F|--------2h3p2h3--2h3p2h3-------------------------------------------| 
C|--0--0~~~~~~~~~----------0--0--4h5p4h5--4h5p4h4--------------------| 
G|--0--0~~~~~~~~~----------0--0~~~~~~~~~~~~--------------------------| 
C|--0--0~~~~~~~~~----------0--0~~~~~~~~~~~~--------------------------| 
 
 Thing (2:44) 
D|-------------------------------------------------------------------| 
A|-------------------------------------------------------------------| 
F|-------------------------------------------------------------------| 
C|--0-0-0-0-0--4-4-4-4---0-0-0-0-0--7-7-7-7---0-0-0-0-0--8-8-8-8-----| 
G|--0-0-0-0-0------------0-0-0-0-0------------0-0-0-0-0--------------| 
C|--0-0-0-0-0------------0-0-0-0-0------------0-0-0-0-0--------------| 
 Above continued 
D|-------------------------------------------------------------------| 
A|-------------------------------------------------------------------| 
F|-------------------------------------------------------------------| 
C|-0-0-0-0--5-5-5-5--------------------------------------------------| 
G|-0-0-0-0-----------------------------------------------------------| 
C|-0-0-0-0-----------------------------------------------------------| 
 
 thing (3:22) 
D|-------------------------------------------------------------------| 
A|-------------------------------------------------------------------| 
F|-------------------------------------------------------------------| 
C|---0-0-0--12-12-12--4-4-4-4-4-4--0-0-0-12-12-12--8-8-8p7-7-4-4---| 
G|---0-0-0--12-12-12---------------0-0-0-12-12-12--------------------| 
C|---0-0-0--12-12-12---------------0-0-0-12-12-12--------------------| 
 
 Outro (4:15) 
D|-------------------------------------------------------------------| 
A|-------------------------------------------------------------------| 
F|-------------------------------------------------------------------| 
C|---4---7---8---5---0-----------------------------------------------| 
G|-----------------------4-------------------------------------------| 
C|-------------------------------------------------------------------|		   
AcordesyTabs.com © 2008 Acordes y Tablaturas para guitarra. Tabs and Chords for guitar. Aviso Legal - Contacto
El uso de este sitio está sujeto a la aceptación de los términos y condiciones (36 usuarios online)