tablaturas, partituras y acordes para guitarra
Busca por banda/artista:
 
y/o título de la canción:
A B C D E F G H I J K L M N O P Q R S T U V W X Y Z 0 1 2 3 4 5 6 7 8 9 / Top 100 tabs
Categorías
Usuarios
usuario:
Darse de alta
password:
Artistas más visitados
Publicidad
TOP acordes y tablaturas de The pass - rush


2112
de The pass - rush
Puntúa este acorde/tab:      
(0.4/5)
Reportar este acorde/tab
  Añadir a tus favoritos
  Imprimir
Intro:
e|----6--|-(6)-|----6--|-(6)--|
B|----6--|-(6)-|----6--|-(6)--|
G|----7--|-(7)-|----8--|-(8)--|
D|----8--|-(8)-|----8--|-(8)--|
A|-------|-----|---(6)-|-(6)--|
E|-------|-----|-------|------|

Verso 1:
2x  
e|----6--|-(6)-|----6--|-(6)--|
B|----6--|-(6)-|----6--|-(6)--|
G|----7--|-(7)-|----8--|-(8)--|
D|----8--|-(8)-|----8--|-(8)--|
A|-------|-----|---(6)-|-(6)--|
E|-------|-----|-------|------|
Proud swagger out of the schoolyard
Waiting for the world's applause
Rebel without a conscience
Martyr without a cause
Static on your frequency
Electrical storm in your veins
Raging at unreachable glory
Straining at invisible chains

F-F-F-F

Verso ponte:
e|--1-----------------|-----------------1--1--1--1-------------------|
B|--1-----------------|-----------------1--1--1--1-------------------|
G|--3-----3--------3--|-(3)-------3-----2--2--2--3-------------------|
D|--3--------3--------|-----1-h3--------3--3--3--3-------------------|
A|--1--1--------1-----|--------------1--3--3--3--1-------------------|
E|--------------------|-----------------1--1--1----------------------|

e|--1-----------------|-----------------1--1--1----------------------|
B|--1-----------------|-----------------1--1--1----------------------|
G|--3-----3--------3--|-(3)-------3-----2--2--2----------------------|
D|--3--------3--------|-----1-h3--------3--3--3----------------------|
A|--1--1--------1-----|--------------1--3--3--3--3/------------------|
E|--------------------|-----------------1--1--1--1/------------------|

e|--6-----------------|-----------1--1--1--1/------------------------|
B|--6-----------------|-----------1--1--1--1/------------------------|
G|--8-----8--------8--|-(8)-------2--2--2--2/------------------------|
D|--8--8-----6--------|-----------3--3--3--3/------------------------|
A|--6--6--------6-----|-----------3--3--3--3/------------------------|
E|-(6)----------------|-----------1--1--1--1/------------------------|

e|--6-----------------|----------------------------------------------|
B|--6-----------------|----------------------------------------------|
G|--8-----8--------8--|-(8)------------------------------------------|
D|--8--8-----6--------|----------------------------------------------|
A|--6--6--------6-----|----------------------------------------------|
E|-(6)----------------|----------------------------------------------|
And now you're trembling on a rocky ledge
Staring down into a heartless sea
Can't face life on a razor's edge
Nothing's what you thought it would be

Pré-refrão:
e|--------------------------|--------------------------|
B|o-------------------------|-------------------------o|
G|--------0--------0--------|--------0-----------0-----|
D|-----3--------3--------3--|-----2-----------2--------|
A|o-5--------5--------5-----|--0--------0--3--------3-o|
E|--------------------------|--------------------------|

e|--------------------------|--------------1--1--1--1/---------------|
B|--------------------------|--------------1--1--1--1/---------------|
G|--------0--------0--------|--------0-----2--2--2--2/---------------|
D|-----3--------3--------3--|-----------0--3--3--3--3/---------------|
A|--5--------5--------5-----|-----3--------3--3--3--3/---------------|
E|--------------------------|--5-----------1--1--1--1/---------------|
All of us get lost in the darkness
Dreamers learn to steer by the stars
All of us do time in the gutter
Dreamers turn to look at the cars

Refrão:                            
e|--6-----6--6--6--6--6--|--6--6--6--6--8--8--8--8-------------------|
B|--6-----6--6--6--6--6--|--6--6--6--6--8--8--8--8-------------------|
G|--8-----8--8--8--8--8--|--8--8--8--8--10-10-10-10------------------|
D|--8--8--8--8--8--8--8--|--8--8--8--8--10-10-10-10------------------|
A|--6--6--6--6--6--6--6--|--6--6--6--6--8--8--8--8-------------------|
E|-----------------------|-------------------------------------------|

e|--6-----6--6--6--6--6--|--6--6--6--6--6------|----------------------
B|--6-----6--6--6--6--6--|--6--6--6--6--8------|----------------------
G|--8-----8--8--8--8--8--|--8--8--8--8--8------|----------------------
D|--8--8--8--8--8--8--8--|--8--8--8--8--8------|----------------------
A|--6--6--6--6--6--6--6--|--6--6--6--6--6------|----------------------
E|-----------------------|---------------------|----------------------
Turn around and turn aroud and turn around
Turn around and walk the razor's edge
Don't turn you back
And slam the door on me

Ponte:(uma guitarra faz a intro.!)
e|-----|---------12---|-(12)~------|--8------12p10--|-(10)~-(10)~----|
B|-----|---12---(12)--|-(12)-------|----------------|----------------|
G|-----|--------------|------------|----------------|--------9-------|
D|-----|--------------|------------|----------------|----------------|
A|-----|--------------|------------|----------------|----------------|
E|-----|--------------|------------|----------------|----------------|

e|-(10)~--------------|-------|-------|------------------------------|
B|--------------<7>---|-(<7>)-|-(<7>)-|-(<7>)------------------------|
G|-(9)---<7>---(<7>)--|-(<7>)-|--h10--|--(10)------------------------|
D|--------------------|--h5---|--(5)--|--(5)-------------------------|
A|--------------------|-------|-------|------------------------------|
E|--------------------|-------|-------|------------------------------|

Verso 2:
e|--------------------------|    |-----------------------------------|
B|--------------------------|    |-----------------------------------|
G|--------------------------|    |--------8-----------8--------------|
D|--------8-----------8-----| x4 |-----8-----8-----8-----8-----------| x4
A|-----8-----8-----8-----8--|    |--6-----------6--------------------|
E|--6-----------6-----------|    |-----------------------------------|

e|--------------------------|    |-----------------------------------|
B|--------------------------|    |-----------------------------------|
G|--------------------------|    |--------8-----------8--------------|
D|--------8-----------8-----| x4 |-----8-----8-----8-----8-----------| x4
A|-----8-----8-----8-----8--|    |--6-----------6--------------------|
E|--6-----------6-----------|    |-----------------------------------|
It's not as if this barricade
Blocks the only road
It's not as if you're all alone
In wanting to explode

e|----6--|-(6)-|----6--|-(6)--|
B|----6--|-(6)-|----6--|-(6)--|
G|----7--|-(7)-|----8--|-(8)--|
D|----8--|-(8)-|----8--|-(8)--|
A|-------|-----|---(6)-|-(6)--|
E|-------|-----|-------|------|
Someone set a bad example
Made surrender seem all right
The act of a noble warrior
Who lost the will to fight

F-F-F-F

Verso ponte:

Pré-refrão:

Refrão:

F-Bb ==>deixe-os soarem

Solo:
e|--------------|-----------------------|-----------------|
B|--------------|-----------------------|-----------------|
G|--------------|-----------------------|-----------------|
D|--8--10/12----|--12-13/15-------------|--12-13/15b16r15-|
A|--------------|--------------13----|-----------------|
E|--------------|-----------------------|-----------------|

e|-12----------|--12-------------|--11-13-15----|
B|----11-15----|-----11-15-------|-----------11-|
G|-------------|-----------10----|--------------|
D|-------------|-----------------|--------------|
A|-------------|-----------------|--------------|
E|-------------|-----------------|--------------|

e|-11-13-15----15-15----13-13----11-|-15-13-15-17-18^-18^~-|
B|----------11-------11-------11----|----------------------|
G|----------------------------------|----------------------|
D|----------------------------------|----------------------|
A|----------------------------------|----------------------|
E|----------------------------------|----------------------|

Verso ponte 2:
e|--1-----------------|-----------------1--1--1--1-------------------|
B|--1-----------------|-----------------1--1--1--1-------------------|
G|--3-----3--------3--|-(3)-------3-----2--2--2--3-------------------|
D|--3--------3--------|-----1-h3--------3--3--3--3-------------------|
A|--1--1--------1-----|--------------1--3--3--3--1-------------------|
E|--------------------|-----------------1--1--1----------------------|

e|--1-----------------|-----------------1--1--1----------------------|
B|--1-----------------|-----------------1--1--1----------------------|
G|--3-----3--------3--|-(3)-------3-----2--2--2----------------------|
D|--3--------3--------|-----1-h3--------3--3--3----------------------|
A|--1--1--------1-----|--------------1--3--3--3--3/------------------|
E|--------------------|-----------------1--1--1--1/------------------|

e|--6-----------------|-----------1--1--1--1/------------------------|
B|--6-----------------|-----------1--1--1--1/------------------------|
G|--8-----8--------8--|-(8)-------2--2--2--2/------------------------|
D|--8--8-----6--------|-----------3--3--3--3/------------------------|
A|--6--6--------6-----|-----------3--3--3--3/------------------------|
E|-(6)----------------|-----------1--1--1--1/------------------------|

e|--6-----------------|----------------------------------------------|
B|--6-----------------|----------------------------------------------|
G|--8-----8--------8--|-(8)------------------------------------------|
D|--8--8-----6--------|----------------------------------------------|
A|--6--6--------6-----|----------------------------------------------|
E|-(6)----------------|----------------------------------------------|
No hero in your tragedy
No daring in your escape
No salutes for your surrender
Nothing noble in your fate
Christ, what have you done?

Pré-refrão:

Refrão:
e|--6-----------------|----------------------------------------------|
B|--6-----------------|--------------10-10-10-10---------------------|
G|--8--8--8-----------|--------------10-10-10-10---------------------|3x
D|--8--8--8--8--8--8--|--8--8--8--8--10-10-10-10---------------------|
A|--6--6--6--5--5--5--|--6--6--6--6--8--8--8--8----------------------|
E|--------------------|-----6--6-------------------------------------|

e|--6--6--6--6--6--6--|--6--6--6--6--6------|
B|--6--6--6--6--6--6--|--6--6--6--6--6------|
G|--8--8--8--8--8--8--|--8--8--8--8--8------|
D|--8--8--8--8--8--8--|--8--8--8--8--8------|
A|--6--6--6--6--6--6--|--6--6--6--6--6------|
E|--------------------|---------------------|
Turn around and turn aroud and turn around
Turn around and walk the razor's edge
Turn around and walk the razor's edge
Turn around and walk the razor's edge
Don't turn you back
And slam the door on me		   
AcordesyTabs.com © 2008 Acordes y Tablaturas para guitarra. Tabs and Chords for guitar. Aviso Legal - Contacto
El uso de este sitio está sujeto a la aceptación de los términos y condiciones (21 usuarios online)