tablaturas, partituras y acordes para guitarra
Busca por banda/artista:
 
y/o título de la canción:
A B C D E F G H I J K L M N O P Q R S T U V W X Y Z 0 1 2 3 4 5 6 7 8 9 / Top 100 tabs
Categorías
Usuarios
usuario:
Darse de alta
password:
Artistas más visitados
Publicidad
TOP acordes y tablaturas de John frusciante


Untitled #2
de John frusciante
Puntúa este acorde/tab:      
(0.9/5)
Reportar este acorde/tab
  Añadir a tus favoritos
  Imprimir
Untitled #2(Faixa14)

esse é o riff principal
e|--------12----------------10-8-|--------8--------------------|
B|--13--------------12-----------|--10-------------10------10--|
G|--------------12------12-------|-------------10------10------|
D|-------------------------------|-----------------------------|
A|-------------------------------|-----------------------------|
E|-------------------------------|-----------------------------|
e|--------------------------|--------13--------12--|--------12---------------10-10-8-|
B|--8-------------5------3--|----------------------|--13--------------12-------------|
G|-------9------5------4----|----------------------|--------------12------12---------|
D|------------7------5------|----------------------|---------------------------------|
A|--------------------------|----------------------|---------------------------------|
E|--------------------------|----------------------|---------------------------------|
e|--------8--------------------|--------------------------|--------------------||
B|--10-------------10------10--|--8-------------5------3--|--1--------1--------||
G|-------------10------10------|-------9------5------4----|--------------------||
D|-----------------------------|------------7------5------|--------------------||
A|-----------------------------|--------------------------|--------------------||
E|-----------------------------|--------------------------|--------------------||		   
AcordesyTabs.com © 2008 Acordes y Tablaturas para guitarra. Tabs and Chords for guitar. Aviso Legal - Contacto
El uso de este sitio está sujeto a la aceptación de los términos y condiciones (17 usuarios online)