tablaturas, partituras y acordes para guitarra
Busca por banda/artista:
 
y/o título de la canción:
A B C D E F G H I J K L M N O P Q R S T U V W X Y Z 0 1 2 3 4 5 6 7 8 9 / Top 100 tabs
Categorías
Usuarios
usuario:
Darse de alta
password:
Artistas más visitados
Publicidad
TOP acordes y tablaturas de John frusciante


Untitled#10
de John frusciante
Puntúa este acorde/tab:      
(0.4/5)
Reportar este acorde/tab
  Añadir a tus favoritos
  Imprimir
Untitled#10(Faixa22)

SOLD A HOLE TO A DISASTER
Amin         Bb                     Dmin
Sold    a    hole    to    a    dis-aster.
F                  C              Gmin               Dmin
Nail    the    strong    winds    tied    to    a    door
Amin           Bb                               Dmin
Know    the    crimes    that    stick    in    thru
F  C           Gmin                   Dmin
Un-fastened    belts    on    your    heart
               C        Gmin            Dmin
And    I've    never    been    very    smart
Gmaj                   Dmin               F       Dmin
But    I    con-nect    you    with    your    shadow,    Hey,    hey.
outro solo: 
e | -------------------------------------------------------------------------- | 
B | --15b-----15-------------------------------------------------------------- | 
G | ------------------14---12------------------------------------------------- | 
D | ------------------------------14---12---(12)---7---5h7---7~~~~------------ | 
A | -------------------------------------------------------------------------- | 
E | -------------------------------------------------------------------------- | 

Untitled #10(Faixa22)Versão2
Intro 
 (D#)             (Bb)             (G)              (G)
 | -------8-------- | ---------------- | ---------------- | ------------- | 
 | -------------8-- | -----p---------- | ---------------- | ------------- | 
 | ----------8----- | ----9--7-----7-- | -------------3== | ===---------- | 
 | ----8----------- | ----------8----- | ---------4------ | ----4-------- | 
 | -6-------------- | ---------------- | -----5---------- | --------5---- | 
 | ---------------- | -6-------------- | -3-------------- | ------------- | 
Verso, repeat throughout most of the song
 (D#)           (Bb)           (C)           (C)
 | -------------- | -------------- | ------------- | ------------- | 
 | -----------8-- | -----------3-- | ----5-------- | ----5-------- | 
 | --------8----- | --------3----- | -------5----- | -------5----- | 
 | -----8-------- | -----3-------- | ----------5-- | ----------5-- | 
 | -6------------ | -1------------ | -3----------- | -3----------- | 
 | -------------- | -------------- | ------------- | ------------- | 
 (D#)           (Bb)           (G)           (G)
 | -------------- | -------------- | ------------- | ------------- | 
 | -----------8-- | -----------3-- | ------------- | ----h--p----- | 
 | --------8----- | --------3----- | ----------3== | ==-3-5--3---- | 
 | -----8-------- | -----3-------- | -------4----- | -----------4- | 
 | -6------------ | -1------------ | ----5-------- | ------------- | 
 | -------------- | -------------- | -3----------- | ------------- |  		   
AcordesyTabs.com © 2008 Acordes y Tablaturas para guitarra. Tabs and Chords for guitar. Aviso Legal - Contacto
El uso de este sitio está sujeto a la aceptación de los términos y condiciones (27 usuarios online)