tablaturas, partituras y acordes para guitarra
Busca por banda/artista:
 
y/o título de la canción:
A B C D E F G H I J K L M N O P Q R S T U V W X Y Z 0 1 2 3 4 5 6 7 8 9 / Top 100 tabs
Categorías
Usuarios
usuario:
Darse de alta
password:
Artistas más visitados
Publicidad
TOP acordes y tablaturas de Metallica


Purify
de Metallica
Puntúa este acorde/tab:      
(0.4/5)
Reportar este acorde/tab
  Añadir a tus favoritos
  Imprimir
-------------------------------------------------------------------------------
     Purify - MetallicA
-------------------------------------------------------------------------------

Tabbed by: Sean Coleman

Tuning: 1 step down all strings (drop to C on 6th string)

Intro:
D|---------------------------------------------------------------------------|
A|---------------------------------------------------------------------------|
F|---------------------------------------------------------------------------|
C|---------------------------------------------------------------------------|
G|-0-0-3-0-3-3-0-3-3-0-3-5-5-0-----------------------------------------------|
C|-0-0-3-0-3-3-0-3-3-0-3-5-5-0-----------------------------------------------|

D|---------------------------------------------------------------------------|
A|---------------------------------------------------------------------------|
F|---------------------------------------------------------------------------|
C|---------------------------------------------------------------------------|2x
G|-0-0--0-0--0-0--0-0--------------------------------------------------------|
C|-0-0--0-0--0-0--0-0--------------------------------------------------------|

Singing part:
D|---------------------------------------------------------------------------|
A|---------------------------------------------------------------------------|
F|---------------------------------------------------------------------------|
C|---------------------------------------------------------------------------|
G|-5-5--5-6-7-0--------------------------------------------------------------|
C|-5-5--5-6-7-0--------------------------------------------------------------|

"Purify! Can you help me..."
D|---------------------------------------------------------------------------|
A|---------------------------------------------------------------------------|
F|---------------------------------------------------------------------------|
C|---------------------------------------------------------------------------|
G|-7---6---5---6-------------------------------------------------------------|
C|-7---6---5---6-------------------------------------------------------------|

"You and I! Purify!..."
D|---------------------------------------------------------------------------|
A|---------------------------------------------------------------------------|
F|---------------------------------------------------------------------------|
C|---------------------------------------------------------------------------|
G|-1-2-3---1-2-3---1-2-3---1-2-3---------------------------------------------|
C|-1-2-3---1-2-3---1-2-3---1-2-3---------------------------------------------|

After the riffs above are repeated...
D|---------------------------------------------------------------------------|
A|---------------------------------------------------------------------------|
F|---------------------------------------------------------------------------|
C|---------------------------------------------------------------------------|
G|---------------------------------------------------------------------------|
C|-0-3-3-0-3-3-0-3-3-0-3-0-3-3-0-3-3-0-3-3-0-3-3-0-3-3-0-3-0-3-3-0-3-3-------|


D|---------------------------------------------------------------------------|
A|---------------------------------------------------------------------------|
F|---------------------------------------------------------------------------|
C|---------------------------3-----------------------------------------------|
G|-----5-3-5-5-3-5-5-3-5-3-5-------------------------------------------------|
C|-0-0-0-0-0-0-0-0-0-0-0-0-0-------------------------------------------------|


"I can find..."
D|---------------------------------------------------------------------------|
A|---------------------------------------------------------------------------|
F|---------------------------------------------------------------------------|
C|-----------------------------------3---------------------------------------|
G|-7-----3--5--3--5-3-0----5-3-5-3-5-----------------------------------------|
C|-7-----3--5--3--5-3-0----0-0-0-0-0-----------------------------------------|


D|---------------------------------------------------------------------------|
A|---------------------------------------------------------------------------|
F|---------------------------------------------------------------------------|
C|---------------------------------------------------------------------------|
G|-3-0-3-5-0---3-3-3-5-0-----------------------------------------------------|2x
C|-3-0-3-5-0---3-3-3-5-0-----------------------------------------------------|


Final riffs at end of song:
D|---------------------------------------------------------------------------|
A|---------------------------------------------------------------------------|
F|---------------------------------------------------------------------------|
C|---------------------------------------------------------------------------|
G|-------3---5---------------------------------------------------------------|
C|-3-4-5-------0-0-0---------------------------------------------------------|

D|---------------------------------------------------------------------------|
A|---------------------------------------------------------------------------|
F|---------------------------------------------------------------------------|
C|-3-3-3-5-----------3-3-3-5-------------------------------------------------|
G|-3-3-3-5-----------3-3-3-5-------------------------------------------------|
C|-----------0-0-0-------------0-0-0-----------------------------------------|


I think that's all.There are some of the first riffs repeated in the middle
of the song though...


| /  slide up
|   slide down
| h  hammer-on
| p  pull-off
| ~  vibrato
| +  harmonic
| x  Mute note
===============================================================================
		   
AcordesyTabs.com © 2008 Acordes y Tablaturas para guitarra. Tabs and Chords for guitar. Aviso Legal - Contacto
El uso de este sitio está sujeto a la aceptación de los términos y condiciones (29 usuarios online)