tablaturas, partituras y acordes para guitarra
Busca por banda/artista:
 
y/o título de la canción:
A B C D E F G H I J K L M N O P Q R S T U V W X Y Z 0 1 2 3 4 5 6 7 8 9 / Top 100 tabs
Categorías
Usuarios
usuario:
Darse de alta
password:
Artistas más visitados
Publicidad
TOP acordes y tablaturas de Rush


Estás en: Inicio > Letra R > Acordes y tablaturas de Rush > Sweet miracle
Sweet miracle
de Rush
Puntúa este acorde/tab:      
(0.5/5)
Reportar este acorde/tab
  Añadir a tus favoritos
  Imprimir
Intro
|------------------------------|
|------------------------------|
|------------------------------|
|------------------------------|
|-15p0-0-14p0-0-15p0-0-14p0-15-|
|------------------------------|

Intro 2
|-7-------10---7----7-------10--|
|-10--8---8----8----10--8---8---|
|-9---7---7----7----9---7---7---|
|-7---5-------------7---5-------|
|-------------------------------|
|-------------------------------|

Verso
  Am   G   F/C  F
|-8----7---8----5---|
|-10---8---6----6---|
|-9----7---5----5---|
|-------------------|
|-------------------|
|-------------------|

Refrão
|-------------------------------|
|-------------------------------|
|-------------------------------|
|---------------------------17~-|
|-12p0-0-14p0-0-15p0-0-19p0-----|
|-------------------------------|

depois do segundo refrão:
|-----------------|
|-----------------|
|-----7-----------|
|-7---7---3---5---|
|-7---5---3---5---|
|-5---5---1---3---|

verso 3
|------------|
|------------|
|------------|
|0h2h5p2p0p2-|
|------------|
|------------|		   
AcordesyTabs.com © 2008 Acordes y Tablaturas para guitarra. Tabs and Chords for guitar. Aviso Legal - Contacto
El uso de este sitio está sujeto a la aceptación de los términos y condiciones (27 usuarios online)