tablaturas, partituras y acordes para guitarra
Busca por banda/artista:
 
y/o título de la canción:
A B C D E F G H I J K L M N O P Q R S T U V W X Y Z 0 1 2 3 4 5 6 7 8 9 / Top 100 tabs
Categorías
Usuarios
usuario:
Darse de alta
password:
Artistas más visitados
Publicidad
TOP acordes y tablaturas de Rush


Estás en: Inicio > Letra R > Acordes y tablaturas de Rush > Half the world
Half the world
de Rush
Puntúa este acorde/tab:      
(0.4/5)
Reportar este acorde/tab
  Añadir a tus favoritos
  Imprimir
Introdução:
 
3x         4x                           
E--------||--------3333---
A--3-3-3-||--3-3-3-3333---
G--2-2-0-||--3-3-0-0000--- 
D--------||--0-0-0-0000---
A--------||---------------
E--------||---------------

Verso 1:
8x
E--------3333---
B--3-3-3-3333---
G--3-3-0-0000---  
D--0-0-0-0000---
A---------------
E---------------
Half the world hates
What half the world does everyday
Half the world waits
While half gets on with it anyway

Refrão:
2x
E---------------|---------------|---------------|----------------
B--7--5--2--222-|--7--5--2--222-|--7--5--2--222-|--3333-2-22-3-2-
G--7--6--2--222-|--7--6--2--222-|--7--6--2--222-|--2222-2-22-2-2-
D--0--0--0--000-|--0--0--0--000-|--0--0--0--000-|--0000-0-00-0-0-
A---------------|---------------|---------------|----------------
E---------------|---------------|---------------|----------------
Half the world Lives
Half the world makes
Half the world gives
While the other half takes
Half the world is
Half the world was
Half the world thinks
While the other half does

Ponte 1:
2x
E--------3333-
B--3-3-3-3333-
G--2-2-0-0000-
D--0-0-0-0000-
A-------------
E-------------

Verso 2:
8x
E--------3333-
B--3-3-3-3333-
G--2-2-0-0000-
D--0-0-0-0000-
A-------------
E-------------
Half the world talks
With half the mind on what they say
Half the world walks
with half a mind to run away

Refrão:
2x
E---------------|---------------|---------------|----------------
B--7--5--2--222-|--7--5--2--222-|--7--5--2--222-|--3333-2-22-3-2-
G--7--6--2--222-|--7--6--2--222-|--7--6--2--222-|--2222-2-22-2-2-
D--0--0--0--000-|--0--0--0--000-|--0--0--0--000-|--0000-0-00-0-0-
A---------------|---------------|---------------|----------------
E---------------|---------------|---------------|----------------
Half the world lies
Half the world learns
Half the world flies
As half the world turns
Half the world laughs
Half the world tries to be the other half

Ponte 2:

E---------|---------|--9------|-------|-------|-------|----------
B--7------|--9------|--8------|----1--|----1--|----1--|----1p01--
G--7------|--9------|--0------|-----0-|-----0-|-----0-|--------0-
D--0------|--0------|--0------|-------|-------|-------|----------
A---------|---------|---------|--3----|--2----|--0----|----------
E---------|---------|---------|-------|-------|-------|--3-------


Verso 3:
2x
E---------|---------|--9------|-------|-------|-------|----------
B--7------|--9------|--8------|----1--|----1--|----1--|----1p01--
G--7------|--9------|--0------|-----0-|-----0-|-----0-|--------0-
D--0------|--0------|--0------|-------|-------|-------|----------
A---------|---------|---------|--3----|--2----|--0----|----------
E---------|---------|---------|-------|-------|-------|--3-------
Half of us divided
Like a torn-up photograph, A torn-up photograph
Half of us are trying
To reach the other half
To reach the other half

Ponte 3:
2x                2x  
E----------------|----------------
B----------------|----------------
G--7777-7-7------|--7777-7-7------
D--7777-7-7-5797-|--5555-5-5-5745-
A--5555-5-5-3575-|--5555-5-5-3523-
E----------------|----------------


antes do solo (intro):

E--------|--------|--------
B--3-3-3-|--3-3-3-|--3-3-3-
G--2-2-0-|--2-2-0-|--2-2-0-
D--0-0-0-|--0-0-0-|--0-0-0-
A--------|--------|--------
E--------|--------|--------

Solo:
4x
E--333-222-222-222-
B--333-333-333-333-
G--222-222-000-222-
D--000-000-000-000-
A------------------
E------------------

Verso 4:
8x  
E--333-222-222-222-
B--333-333-333-333-
G--222-222-000-222-
D--000-000-000-000-
A------------------
E------------------

Half the world cares
While half the world is wasting the day
Half the world shares
While half the world is stealing away

Refrão:
2x
E---------------|---------------|---------------|----------------
B--7--5--2--222-|--7--5--2--222-|--7--5--2--222-|--3333-2-22-3-2-
G--7--6--2--222-|--7--6--2--222-|--7--6--2--222-|--2222-2-22-2-2-
D--0--0--0--000-|--0--0--0--000-|--0--0--0--000-|--0000-0-00-0-0-
A---------------|---------------|---------------|----------------
E---------------|---------------|---------------|----------------
Half the world lives
Half the world makes
Half the world gives
While the other half takes
Half the world cries
Half the world laughs
Half the world tries to be the other half

                                     ´´To be the other half...''
E---------------|-------------|-----------|--------
B--578-8-8-7-53-|-/8-8-7-8-10-|--8-8-7-53-|--8-7-5-
G--000-0-0-0-00-|--0-0-0-0--0-|--0-0-0-00-|--0-0-0-
D---------------|-------------|-----------|--------
A---------------|-------------|-----------|--------
E---------------|-------------|-----------|--------		   
AcordesyTabs.com © 2008 Acordes y Tablaturas para guitarra. Tabs and Chords for guitar. Aviso Legal - Contacto
El uso de este sitio está sujeto a la aceptación de los términos y condiciones (25 usuarios online)