tablaturas, partituras y acordes para guitarra
Busca por banda/artista:
 
y/o título de la canción:
A B C D E F G H I J K L M N O P Q R S T U V W X Y Z 0 1 2 3 4 5 6 7 8 9 / Top 100 tabs
Categorías
Usuarios
usuario:
Darse de alta
password:
Artistas más visitados
Publicidad
TOP acordes y tablaturas de Incubus


Estás en: Inicio > Letra I > Acordes y tablaturas de Incubus > Summer romance (acoustic)
Summer romance (acoustic)
de Incubus
Puntúa este acorde/tab:      
(0.2/5)
Reportar este acorde/tab
  Añadir a tus favoritos
  Imprimir
h-hammer on
/-slide
~-vibrato
x-mute

Intro

E |-7h10-x7-5h7-2-2h5----7h10-x7-5h7-3-3h5-|
B |-7h10-x7-5h7-2-2h5----7h10-x7-5h7-3-3h5-|
G |----------------------------------------| Repeat 4x
D |----------------------------------------|
A |----------------------------------------|
E |----------------------------------------|

E |-7h10-x7-5h7-2-2h5----7h10-x5h7-x3h5-2--|
B |-7h10-x7-5h7-2-2h5----7h10-x5h7-x3h5-2--|
G |----------------------------------------|
D |----------------------------------------|
A |----------------------------------------|
E |----------------------------------------|

E |-7h10-x7-5h7-2-2h5----7h10-x7-5h7-3-3h5--
B |-7h10-x7-5h7-2-2h5----7h10-x7-5h7-3-3h5--
G |-----------------------------------------
A |-----------------------------------------
E |-----------------------------------------

E  ---7h10-x7-x5˙~--|
B  ---7h10-x7-x5˙~--|
G  --------------------| Repeat 2x
A  --------------------|
E  --------------------|

                    intro fiff
E |-7h10-x7-x5˙~-7107-------------------|
B |-7h10-x7-x5˙~-----9------------------|
G |----------------------79---7-9-7977~--|
D |-------------------------9/6-6-6--------|
A |----------------------------------------|
E |----------------------------------------|


Verse

    Bm7
E |-7---------------------------7x7--|
B |-7----12-12-10
-10-7----7x7--|
G |-7-----9	--9--7-9--7-4----7x7--|
A |-9--------------------------------|
E |-7--------------------------------|
 

    Bm7
E |-7---------------------------12x10x10x7x5--|
B |-7----12-12-10
-10-7----12x10x10x7x5--|
G |-7-----9	--9--7-9--7-4--------------------|
D |-7-------------------------------------------|
A |-9-------------------------------------------|
E |-7-------------------------------------------|

Chorus (part 1)

    Em7     A#Dim7  Ebm7    Bm
E |-7x7-7---5x5-5---6x6-6---7-----|
B |-8x8-8---7x7-7---7x7-7---7-----|
G |-7x7-7---6x6-6---6x6-6---7-----|
D |-9x9-9---7x7-7---8x8-8---9-----|
A |-7x7-7---5x5-5---6x6-6---9-----|
E |-7x7-7---5x5-5---6x6-6---7-----|

Chorus (part 2)

E |-7h10-x7-5h7-2-2h5----7h10-x7-5h7-3-3h5--
B |-7h10-x7-5h7-2-2h5----7h10-x7-5h7-3-3h5--
G |-----------------------------------------
A |-----------------------------------------
E |-----------------------------------------

E  ---7h10-x7-x5˙~--|
B  ---7h10-x7-x5˙~--|
G  --------------------|
A  --------------------|
E  --------------------|

Chorus (part 3)

    G               F#
E |-3-x3------------2-2x2-----|
B |-3-x3------------2-2x2-----|
G |-4-x4------------3-3x3-----|
D |-5-x5-4-4-4--5-4-4x4-----|
A |-5-x5-4-4-4--5-4-4x4-----|
E |-3-x3-2-0-2--3-2-2x2-----|
 

Solo:

E |---
-
-
-
-10-12-10----
B |---
-
-
-
-10-12-10----
G |-----9--9--9--9--7--9--7------
D |----------------------------------------
A |----------------------------------------
E |----------------------------------------

E -11-14-11-	-5-7-10-10-10~-----|
B -11-14-11-	-5-7-10-10-10~-----|
G -9--11-9--9--------------------|
D --------------------------------|
A --------------------------------|
E --------------------------------|

Chorus

    Em7     A#Dim7  Ebm7    Bm
E |-7x7-7---5x5-5---6x6-6---7-----|
B |-8x8-8---7x7-7---7x7-7---7-----|
G |-7x7-7---6x6-6---6x6-6---7-----|
D |-9x9-9---7x7-7---8x8-8---9-----|
A |-7x7-7---5x5-5---6x6-6---9-----|
E |-7x7-7---5x5-5---6x6-6---7-----|

E |-7h10-x7-5h7-2-2h5----7h10-x7-5h7-3-3h5--
B |-7h10-x7-5h7-2-2h5----7h10-x7-5h7-3-3h5--
G |-----------------------------------------
A |-----------------------------------------
E |-----------------------------------------

E  ---7h10-x7-x5˙~--|
B  ---7h10-x7-x5˙~--|
G  --------------------|
A  --------------------|
E  --------------------|

     G               F#
E |-3-x3------------2-2x2-----|
B |-3-x3------------2-2x2-----|
G |-4-x4------------3-3x3-----|
D |-5-x5-4-4-4--5-4-4x4-----|
A |-5-x5-4-4-4--5-4-4x4-----|
E |-3-x3-2-0-2--3-2-2x2-----|		   
AcordesyTabs.com © 2008 Acordes y Tablaturas para guitarra. Tabs and Chords for guitar. Aviso Legal - Contacto
El uso de este sitio está sujeto a la aceptación de los términos y condiciones (68 usuarios online)