tablaturas, partituras y acordes para guitarra
Busca por banda/artista:
 
y/o título de la canción:
A B C D E F G H I J K L M N O P Q R S T U V W X Y Z 0 1 2 3 4 5 6 7 8 9 / Top 100 tabs
Categorías
Usuarios
usuario:
Darse de alta
password:
Artistas más visitados
Publicidad
TOP acordes y tablaturas de P.o.d.


Estás en: Inicio > Letra P > Acordes y tablaturas de P.o.d. > Anything right
Anything right
de P.o.d.
Puntúa este acorde/tab:      
(13/5)
Reportar este acorde/tab
  Añadir a tus favoritos
  Imprimir
Tuning: Drop C (from low to high: C, G, C, F, A, D)

[I realize tuning into Drop C is confusing and frustrating, so I have tabbed it in 
Drop D so it goes along with the music. You'll notice that on the chorus it won't 
fit in because it has to be in Drop C to go low enough. I will tab in Drop D]


~ = vibrato
/ = slide

Drop D:

Chorus/Intro:
(Remember, it will not go with the music)

D|------------------------|------------------------|---------------------------|---------------------------|
A|------------------------|------------------------|---------------------------|---------------------------|
F|------------------------|------------------------|---------------------------|---------------------------|
C|-2-2-2-0-2----2-----0---|-2-2-2-0-2----2-----0---|-2-2-2-0-2-4-0---2-----0---|-2-2-2-0-2-4-0---2-----0---|
G|-2-2-2-0-2------2-----0-|-2-2-2-0-2------2-----0-|-2-2-2-0-2-4-0-----2-----0-|-2-2-2-0-2-4-0-----2-----0-|
C|-2-2-2-0-2--2---4-0---2-|-2-2-2-0-2--2---4-0---2-|-2-2-2-0-2-4-0-2---4-0---2-|-2-2-2-0-2-4-0-2---4-0---2-|

D|------------------------|------------------------|---------------------------|---------------------------|
A|------------------------|------------------------|---------------------------|---------------------------|
F|------------------------|------------------------|---------------------------|---------------------------|
C|-2-2-2-0-2----2-----0---|-2-2-2-0-2----2-----0---|-2-2-2-0-2-4-0---2-----0---|-2-2-2-0-2-4-0--2--4--5--0-|
G|-2-2-2-0-2------2-----0-|-2-2-2-0-2------2-----0-|-2-2-2-0-2-4-0-----2-----0-|-2-2-2-0-2-4-0--2--4--5--0-|
C|-2-2-2-0-2--2---4-0---2-|-2-2-2-0-2--2---4-0---2-|-2-2-2-0-2-4-0-2---4-0---2-|-2-2-2-0-2-4-0--2--4--5--0-|

Violin Part (In at :30)

|---------------|---------------|
|---------------|---------------|
|-12--10--9-----|-12--10--9-----|
|------------10-|------------10-|
|-10--8---7-----|-10--8---7-----|
|------------10-|------------10-|
|---------------|---------------|

Verse (In at :36):

I'm not too sure about this part, so corrections are welcome. 

If you get messed up, you can get away with 
|---3---3--|
|--0---0-0-|
|-0--------|

|-------------------------------------|
|-------------------------------------|
|-------------------------------------|
|---3---3----3---3----3---3----2---2--|
|--3---3-3--0---0-0--5---5-5--0---0-0-|
|-0--------0--------0--------0--------|

Repeat x3 (if not, until the end of the verse) 

Play chorus (in at 1:19)

Post-chorus violin part (in at 1:49)

|----------------|-------------|
|----------------|-------------|
|-12--10--9------|--12--14--17-|
|------------10--|-------------|
|-10--8---7------|--10--12--15-|
|------------10--|-------------|

Verse (In at 1:55)

Chorus (In at 2:38)

Solo (In at 3:06) 

(With wah)
|--------------------------------------------------------------------------|
|--------------------------------------------------------------------------|
|--------------------------------------------------------------------------|
|-2~--2-3-2~--2-3-5--3-2-3-2-0---2~--2-3-2~--2-3-5--3-2-3-2-0--2~--2-3-2~--|
|--------------------------------------------------------------------------|
|--------------------------------------------------------------------------|

Heavy part (in at 3:35)

|-------------------|
|-------------------|
|-------------------|
|-2-2-0-2-0-2-0-2-3-|
|-2-2-0-2-0-2-0-2-3-|
|-2-2-0-2-0-2-0-2-3-|

Play 7 times, then end on

|-2-2-0-2-0-2-0-2-4-5-2-|
|-2-2-0-2-0-2-0-2-4-5-2-|
|-2-2-0-2-0-2-0-2-4-5-2-|		   
AcordesyTabs.com © 2008 Acordes y Tablaturas para guitarra. Tabs and Chords for guitar. Aviso Legal - Contacto
El uso de este sitio está sujeto a la aceptación de los términos y condiciones (97 usuarios online)