tablaturas, partituras y acordes para guitarra
Busca por banda/artista:
 
y/o título de la canción:
A B C D E F G H I J K L M N O P Q R S T U V W X Y Z 0 1 2 3 4 5 6 7 8 9 / Top 100 tabs
Categorías
Usuarios
usuario:
Darse de alta
password:
Artistas más visitados
Publicidad
TOP acordes y tablaturas de Sum 41


Estás en: Inicio > Letra S > Acordes y tablaturas de Sum 41 > 32 ways to die
32 ways to die
de Sum 41
Puntúa este acorde/tab:      
(0.3/5)
Reportar este acorde/tab
  Añadir a tus favoritos
  Imprimir
 ^:bend

e|---------------------------------------------------------------------------|
B|---------------------------------------------------------------------------|
G|-9-9-9-9/--10-10-10-10/--12-12-12-12/--10-10-10-10/------------------------|
D|-9-9-9-9/--10-10-10-10/--12-12-12-12/--10-10-10-10/------------------------|
A|-7-7-7-7/---8--8--8--8/--10-10-10-10/---8--8--8--8/------------------------|
E|---------------------------------------------------------------------------|

  Guitar 1
e|--------------------------X4-----------------------------------------------|
B|-^-^--^-^-^-^---^--^--^--^--^----------------------------------------------|
G|-8-8--9-9-8-8--10-10-10-10--8----------------------------------------------|
D|---------------------------------------------------------------------------|
A|---------------------------------------------------------------------------|
E|---------------------------------------------------------------------------|
  Guitar 2
e|---------------------------------------------------------------------------|
B|---------------------------------------------------------------------------|
G|---------------------------------------------------------------------------|
D|-2-2--3-3--2-2--5-5-5-5----------------------------------------------------|
A|-2-2--3-3--2-2--5-5-5-5----------------------------------------------------|
E|-0-0--1-1--0-0--3-3-3-3----------------------------------------------------|		   
AcordesyTabs.com © 2008 Acordes y Tablaturas para guitarra. Tabs and Chords for guitar. Aviso Legal - Contacto
El uso de este sitio está sujeto a la aceptación de los términos y condiciones (63 usuarios online)