tablaturas, partituras y acordes para guitarra
Busca por banda/artista:
 
y/o título de la canción:
A B C D E F G H I J K L M N O P Q R S T U V W X Y Z 0 1 2 3 4 5 6 7 8 9 / Top 100 tabs
Categorías
Usuarios
usuario:
Darse de alta
password:
Artistas más visitados
Publicidad
TOP acordes y tablaturas de Sum 41


T.h.t
de Sum 41
Puntúa este acorde/tab:      
(0.5/5)
Reportar este acorde/tab
  Añadir a tus favoritos
  Imprimir
e|---------------------------------------------------------------------------|X4
B|---------------------------------------------------------------------------|
G|-7-10-10-10-10--7--10-10-10-10--7-10-10-10-10------------------------------|
D|-7-10-10-10-10--7--10-10-10-10--7-10-10-10-10--7---------------------------|
A|-5--8--8--8--8--5---8--8--8--8--5--8--8--8--8--7---------------------------|
E|-----------------------------------------------5---------------------------|

e|---------------------------------------------------------------------------|X2
B|---------------------------------------------------------------------------|
G|-7-10-9----7-10-9-5--------------------------------------------------------|
D|-7-10-9-7--7-10-9-5--------------------------------------------------------|
A|-5--8-7-7--5--8-7-3--------------------------------------------------------|
E|--------5------------------------------------------------------------------|

e|---------------------------------------------------------------------------|
B|---------------------------------------------------------------------------|
G|-----------7--7-10-10-10-10--7-10-10-10-10---------------------------------|
D|-5-5--7-7--7--7-10-10-10-10--7-10-10-10-10---------------------------------|
A|-5-5--7-7--5--5--8--8--8--8--5--8--8--8--8---------------------------------|
E|-3-3--5-5------------------------------------------------------------------|

e|---------------------------------------------------------------------------|
B|---------------------------------------------------------------------------|
G|-----10-9--------10-10-10-10--7--10-10-10-10--7--10-10-10-10---------------|
D|-5-7-10-9--5-7---10-10-10-10--7--10-10-10-10--7--10-10-10-10---------------|
A|-5-7--8-7--5-7-5--8--8--8--8--5---8--8--8--8--5---8--8--8--8---------------|
E|-3-5-------3-5-------------------------------------------------------------|		   
AcordesyTabs.com © 2008 Acordes y Tablaturas para guitarra. Tabs and Chords for guitar. Aviso Legal - Contacto
El uso de este sitio está sujeto a la aceptación de los términos y condiciones (37 usuarios online)