tablaturas, partituras y acordes para guitarra
Busca por banda/artista:
 
y/o título de la canción:
A B C D E F G H I J K L M N O P Q R S T U V W X Y Z 0 1 2 3 4 5 6 7 8 9 / Top 100 tabs
Categorías
Usuarios
usuario:
Darse de alta
password:
Artistas más visitados
Publicidad
TOP acordes y tablaturas de System of a down


Nuguns
de System of a down
Puntúa este acorde/tab:      
(0.1/5)
Reportar este acorde/tab
  Añadir a tus favoritos
  Imprimir
Tuning: Drop D, Down 1 Step (C,G,C,F,A,D)

INTRO:
|----------|
|----------|
|----------|
|-7-8-10-8-|
|-7-8-10-8-|
|-7-8-10-8-|

CHORUS: (^ - bend 1/2 step)
|----------------------------------------------------------|
|----------------------------------------------------------|
|----------------------------------------------------------|
|----------------------------------------------------------|
|----------------------------------------------------------|
|-7-0-0-0-8-0-0-0-10-0-0-0-8^--7-0-0-0-8-0-0-0-10-0-0-0-8^-|
pm. . . . . . . . .. . . .     . . . . . . . . .. . . .

|---------------------------------------|
|---------------------------------------|
|---------------------------------------|
|------------------------------7-8-10-8-|
|------------------------------7-8-10-8-|
|-7-0-0-0-8-0-0-0-10-0-0-0-8^--7-8-10-8-|
pm. . . . . . . . .. . . .

|----------------------------------------------------------|
|----------------------------------------------------------|
|----------------------------------------------------------|
|----------------------------------------------------------|
|----------------------------------------------------------|
|-7p0-8p0-10p0-8p0-7p0-8p0-10--7p0-8p0-10p0-8p0-7p0-8p0-10-|

|--------------------------------------------|
|--------------------------------------------|
|--------------------------------------------|
|-----------------------------------7-8-10-8-|
|-----------------------------------7-8-10-8-|
|-7p0-8p0-10p0-8p0-7p0-8p0-10p0-8p0-7-8-10-8-|

FILL:
|----------------------|
|----------------------|
|-7---7---<7>---<7>----|
|---7---7----<7>---<7>-|
|----------------------|
|----------------------|

VERSE: (palm mute) (w/ random harmonics)
|--------------------------------------------------------------------|
|--------------------------------------------------------------------|
|--------7-77---7-77-----7-77---7-77-----7-77---7-77-----7-77---7-77-|
|--------------------------------------------------------------------|
|-55-6-6------6------6-6------6------6-6------6------6-6------6------|
|--------------------------------------------------------------------|
pm       . ..   . ..     . ..   . ..     . ..   . ..     . ..   . ..

|------------------------------------------------------------------|
|------------------------------------------------------------------|
|-------------<7>-------------<7>------7-77---7-77-----7-77---7-77-|
|-----<7>-------------<7>------------------------------------------|
|-0-0-----0-0-----0-0-----0-0------6-6------6------6-6------6------|
|-0-0-----0-0-----0-0-----0-0--------------------------------------|
pm. .     . .     . .     . .          . ..   . ..     . ..   . ..

|----------------------------------------------------|
|----------------------------------------------------|
|-----7-77---7-77-----7-77---7--7---7---<7>---<7>----|
|---------------------------------7---7----<7>---<7>-|
|-6-6------6------6-6------6-------------------------|
|----------------------------------------------------|
pm    . ..   . ..     . ..   .

INTERLUDE:
|-----------------|
|-----------------|
|-----------------|
|-----------------|
|-00-0-7/-00-0-7-|
|-00-0-7/-00-0-7-|

INTERLUDE FILL:
|----------|
|----------|
|----------|
|----------|
|----------|
|-7-8-10-8-|

SOLO: (guitar 1) (^ - bend 1/4 step)
|-----------------------------------------------------------|
|-----------------------------------------------------------|
|-7(trem)--8(trem)--7----7^---------------------------------|
|---------------------10-----10-8-10^--8-7-8^--7----7(trem)-|
|------------------------------------------------10---------|
|-----------------------------------------------------------|

|--------------------------------------------------------------------|
|-----------------------------10(trem)---13--11-10-10h11p10-10h11p10-|
|--------------------------------------------------------------------|
|-10^--8-7-8^--7---------7-------------------------------------------|
|----------------10-9-10---10----------------------------------------|
|--------------------------------------------------------------------|

|---------------------------------------------------------------|
|-13-11-10-10h11p10-10h11p10--10(trem)---13--11-10-11--10-------|
|---------------------------------------------------------12-11-|
|---------------------------------------------------------------|
|---------------------------------------------------------------|
|---------------------------------------------------------------|

SOLO: (guitar 2)
|-11-11-11-12-14-12-11-12-11----11----------------------|
|----------------------------14----14-12-14-12-11-12-11-|
|-------------------------------------------------------|
|-------------------------------------------------------|
|-------------------------------------------------------|
|-------------------------------------------------------|

|-----------------------------------------------------|
|-----------------------------------------------------|
|-14-141414-141414-141414-141414-141414-141414-141414-|
|-----------------------------------------------------|
|-----------------------------------------------------|
|-----------------------------------------------------|

|------------------------------------------------------|
|------------------------------------------------------|
|15h17p15-15h17p15-15h17p15-15h17p15-15h17p15-15h17p15-|
|------------------------------------------------------|
|------------------------------------------------------|
|------------------------------------------------------|

|-------------------------------------------------------------|
|-------------------15-15-15-15-15-15-15-15h16-18-16-15-16-15-|
|-15h17p15-15h17p15-14-14-14-14-14-14-14-14-------------------|
|-------------------------------------------------------------|
|-------------------------------------------------------------|
|-------------------------------------------------------------|

|----------------------|
|----------------------|
|-17-15-13-12-13-15-13-|
|----------------------|
|----------------------|
|----------------------|

FILL 2:
|-10(trem)-|
|----------|
|----------|
|----------|
|----------|
|----------|

		   
AcordesyTabs.com © 2008 Acordes y Tablaturas para guitarra. Tabs and Chords for guitar. Aviso Legal - Contacto
El uso de este sitio está sujeto a la aceptación de los términos y condiciones (20 usuarios online)