tablaturas, partituras y acordes para guitarra
Busca por banda/artista:
 
y/o título de la canción:
A B C D E F G H I J K L M N O P Q R S T U V W X Y Z 0 1 2 3 4 5 6 7 8 9 / Top 100 tabs
Categorías
Usuarios
usuario:
Darse de alta
password:
Artistas más visitados
Publicidad
TOP acordes y tablaturas de System of a down


Suite-pee
de System of a down
Puntúa este acorde/tab:      
(0.5/5)
Reportar este acorde/tab
  Añadir a tus favoritos
  Imprimir
Afinação(C,G,C,F,A,D)

D---------------------------------------
A---------------------------------------
F--5/5--------------------------------
C---------5/5-------5/5-------------  x2
G---------------5/5-------------------
C---------------------------------------

D---------------------------------------
A---------------------------------------
F---------------------------------------
C---------------------------------------
G-0000101-0000101-0000101-000010-12b----
C-0000101-0000101-0000101-000010-12b----

D---------------------------------------
A---------------------------------------
F---------------------------------------
C---------------------------------------
G-0000101-0000101-0000101-0000-12-0----
C-0000101-0000101-0000101-0000-12-0----


D-----------------10b-------------------
A---------------------------------------
F--7777878-777787-----------------------
C--------------------------------------- x4
G---------------------------------------
C---------------------------------------


D---------------------------------------
A---------------------------------------
F---------------------------------------
C--------------------------------------- x3
G-0-1-0--0-5-4--------------------------
C-0-1-0--0-5-4--------------------------
           
D---------------------------------------
A---------------------------------------
F---------------------------------------
C--------------------------------------- 
G-0-1-0--0--5-4-------------------------
C-0-1-0--0--5-4-------------------------

D---------------------------------------
A---------------------------------------
F---------------------------------------
C--------------------------------------- x4
G-0-1-0--0-5-4--------------------------
C-0-1-0--0-5-4--------------------------


D---------------------------------------
A---------------------------------------
F---------------------------------------
C--5-4br--------------------------------
G---------------------------------------
C---------------------------------------

D---------------------------------------
A---------------------------------------
F---------------------------------------
C--0-1-0--0--5-4------0-1-0--0-5-4--4*--
G---------------------------------------
C---------------------------------------



Letra:

I had an out of body experience, the other day, 
her name was Jesus, and for her everyone cried, 
everyone cried, everyone cried. Try her philosophy, 
try her philosophy, try her philosophy, try. You die 
for her philosophy, die for her philosophy, die her 
philosophy die. Crossed and terrored ravages of 
architecture, lend me thy blades, we're crossed 
and terrored ravages of architecture, hoist around 
the spade. Try her philosophy, try her philosophy, 
try her philosophy, and try. You die for her philosophy, 
die for her philosophy, die her philosophy die. die.....
die......die......why......lie naked on the floor and let 
the messiah go through our souls, lie naked on the 
floor and let the messiah go all through our souls, die, 
like a mother fucker, die, like a mother fucker, die, like 
a mother fucker, why, like a mother fucker, i want to 
fuck my way to the garden, cause everyone needs a 
mother fucker! Try her philosophy, try her philosophy, 
try her philosophy, try. You die for her philosophy, die 
for her philosophy, die her philosophy die. the following 
of a christ, the following of a christ, the following of a christ,
the following of a christ, the falling of christ, the falling of christ, 
the falling of christ, the falling of christ.		   
AcordesyTabs.com © 2008 Acordes y Tablaturas para guitarra. Tabs and Chords for guitar. Aviso Legal - Contacto
El uso de este sitio está sujeto a la aceptación de los términos y condiciones (22 usuarios online)