tablaturas, partituras y acordes para guitarra
Busca por banda/artista:
 
y/o título de la canción:
A B C D E F G H I J K L M N O P Q R S T U V W X Y Z 0 1 2 3 4 5 6 7 8 9 / Top 100 tabs
Categorías
Usuarios
usuario:
Darse de alta
password:
Artistas más visitados
Publicidad
TOP acordes y tablaturas de System of a down


War?
de System of a down
Puntúa este acorde/tab:      
(0.3/5)
Reportar este acorde/tab
  Añadir a tus favoritos
  Imprimir
Introdução

D|-----------------|------------------|
A|---------x-x-x-x-|----------8---8---|
F|-8-7-8-7-x-x-x-x-|-8-7-8-7----7---7-|
C|---------x-x-x-x-|------------------|
G|-----------------|------------------|
C|---------------x3|----------------x1|

D|-------------------------------|   
A|---------x-x-x-x-x-x-x-x-x-x-x-|   
F|-8-7-8-7-x-x-x-x-x-x-x-x-x-x-x-|   
C|---------x-x-x-x-x-x-x-x-x-x-x-|  
G|-------------------------------|  
C|-------------------------------|  


D|------------------------------------------------------|
A|------------------------------------------------------|
F|---------------------------1010------------1111-------|
C|----------------------------x-x------------x-x--------|
G|-0-6-0-0-6-0-0-8-0-0-6-0-0--8-9-0-0-6-0-0--9-90-0-6-0-|
C|-0-6-0-0-6-0-0-8-0-0-6-0-0------0-0-6-0-0-----0-0-6-0-|


D|--------------------------------------------|
A|--------------------------------------------|
F|--------------------------------------------|
C|--------------------------------------------|
G|-1-0-1-0--1-0-1-0--1-0-1-0--1-0-1-0-5-0-5-0-|
C|-1-0-1-0--1-0-1-0--1-0-1-0--1-0-1-0-5-0-5-0-|

D|-------------------------------------------------------------------|
A|-------------------------------------------------------------------|
F|-------------------------------------------------------------------|
C|-------------------------------------------------------------------|
G|-------------------------------------------------------------------|
C|-1-0-1-0-x-x-x-x-1-0-1-0-x-x-x-x-1-0-1-0-x-x-x-x-1-0-1-0-5-0-5-0-2x|


D|----------------------------------------------------------------|
A|----------------------------------------------------------------|
F|----------------------------------10-------------11-11----------|
C|-----------------------------------x--------------x--x----------|
G|-0-0-6-6-0-0-6-0-0-8-8-0-0-6-0-0---8---0-0-6-0-0--9--9--0-0-6-0-|
C|-0-0-6-6-0-0-6-0-0-8-8-0-0-6-0-0-------0-0-6-0-0--------0-0-6-0-|
 

D|-------------------------------------|
A|-------------------------------------|
F|---10-8-7---7-8-10---10-8-7---6-7-9--|
C|-0--------0--------0--------0--------|
G|-------------------------------------|
C|-------------------------------------|



Letra:

Dark is the light,
The man you fight,
With all your prayers, incantations,
Running away, a trivial day,
Of judgment and deliverance,
To whom was sold, this bounty soul,
A gentile or a priest ?
Who victored over, the Seljuks,
When the holy land was taken

We will fight the heathens, We will fight the heathens
We will fight the heathens, We will fight the heathens

Was it the riches, of the land,
Powers of bright darkness,
That lead the noble, to the East,
To fight the heathens

We will fight the heathens, We will fight the heathens
We will fight the heathens, We will fight the heathens
We will fight the heathens, We will fight the heathens
We will fight the heathens, We will fight the heathens

We must call upon our bright darkness,
Beliefs, they're the bullets of the wicked,
One was written on the sword,
For you must enter a room to destroy it,
International security,
Call of the righteous man,
Needs a reason to kill man,
History teaches us so,
The reason he must attain,
Must be approved by his God, 
His child, partisan brother of war,

Of war, we don't speak anymore,
Of war, we don't speak anymore,
Of war, we don't speak anymore,
Of war, we don't speak anymore,

We will fight the heathens, We will fight the heathens
We will fight the heathens, We will fight the heathens
We will fight the heathens, We will fight the heathens
We will fight the heathens, We will fight the heathens		   
AcordesyTabs.com © 2008 Acordes y Tablaturas para guitarra. Tabs and Chords for guitar. Aviso Legal - Contacto
El uso de este sitio está sujeto a la aceptación de los términos y condiciones (25 usuarios online)