tablaturas, partituras y acordes para guitarra
Busca por banda/artista:
 
y/o título de la canción:
A B C D E F G H I J K L M N O P Q R S T U V W X Y Z 0 1 2 3 4 5 6 7 8 9 / Top 100 tabs
Categorías
Usuarios
usuario:
Darse de alta
password:
Artistas más visitados
Publicidad
TOP acordes y tablaturas de Fiel a la vega


Cvnd
de Fiel a la vega
Puntúa este acorde/tab:      
(0.2/5)
Reportar este acorde/tab
  Añadir a tus favoritos
  Imprimir
Para que suene igual que en el disco se usa sordina o capo en el segundo espacio. 

----------------------------------------
----------------------------------------
----------0------0------0------0--------
--------2------4------0------2----------
--0-2-3------5------2------3------------
----------------------------------------

Esta parte se repite 3 veces y luego termina algo asi: 

--------------------------------------------------------
----------------------------0------------0--------------
------0------0------0-----0-----0------0----------------
----2------4------4-----4-----4------4------------------
--3------5------7-----7-----------7---------------------
--------------------------------------------------------
 y asi sigue durante las estrofas.

Los acordes son: 
C+   D+         E-   C+ 
Desde que salimos de la grieta 
C+      D+    E-  C+ 
hemos querido andar 
C+     D+         E- C+ 
y esa proeza no es naturaleza 
C+      D+     E- 
que se pueda cambiar 

Esta parte no estoy muy seguro que sea asi exactamente 

Pre-coro: 
  E-        D+    E-      D+  C+  G+  D+
y siempre es sano dejar a un lado toda confu sion 
     E-    D+         E-         D+ 
y hablar de frente pues siempre hay gente que no 
C+        G+ D+ 
entiende otra vision 

El coro es siempre asi:
C+                 D+        E- 
Solo queremos hacer claro nuevamente
C+                      D+          E- 
que aqui lo que se canta es lo que se siente....

al terminar el coro 
C+                       D+
no todo lo que tiene un precio 

Las proximas estrofas son iguales que las primeras solo se cambia el 
E- por G+ (excepto el de al final de la 
estrofa) 
El pre-coro se queda igual. 

Nota:si no tienes sordina para que suene igual que en el disco sustituye 
Do+ -> Re+      Mi- -> Fa#- 
Re+ -> Mi+      Sol+ -> La+  		   
AcordesyTabs.com © 2008 Acordes y Tablaturas para guitarra. Tabs and Chords for guitar. Aviso Legal - Contacto
El uso de este sitio está sujeto a la aceptación de los términos y condiciones (15 usuarios online)