tablaturas, partituras y acordes para guitarra
Busca por banda/artista:
 
y/o título de la canción:
A B C D E F G H I J K L M N O P Q R S T U V W X Y Z 0 1 2 3 4 5 6 7 8 9 / Top 100 tabs
Categorías
Usuarios
usuario:
Darse de alta
password:
Artistas más visitados
Publicidad
TOP acordes y tablaturas de Fiel a la vega


Ese camino
de Fiel a la vega
Puntúa este acorde/tab:      
(0.5/5)
Reportar este acorde/tab
  Añadir a tus favoritos
  Imprimir
Intro:  (Hammond B3)
(Ritmo I)
 Em                Bm
 Ete camino lo camino yo,
C             Bm           Em
siempre derrumbando una pared.
                     Bm
Las que colindan entre tu y yo
        C             Bm         Em
las que siempre nos separan al nacer
  Bm                C
unguento y clasificación,
         Bm               Em
prejuicio y nalgadas de bebé...

(Ritmo II)
(Se Repite)Em           Bm        C             Bm         Em
e | ---------0------------2-------- | -0-------------2------------ | 
b | ---------0------------3-------- | -1-------------3------------ | 
g | .--------0------------4-------- | -0-------------4-----------. | 
D | .--------2------------4-------- | -2-------------4-----------. | 
A | ---------2-----0-2----2--0-2-3- | -3---3-0-2-----2------2-0--- | 
E | -0-------0-0----------0-------- | -0-------------0----------0- | 

 Este camino lo camino yo y entre tantas piedras que encontré.
Una pisada que me llevó de la arena, al mar, al mundo en tus pies.

(*En esta parte, cuando cambie de acorde, con la palma de la mano
derecha tape las cuerdas produciendo un sonido de "scratch" {palm mute} ) 

Em             *Bm 
Eres otro que camina solo 
   C        Bm           Em 
buscando un cielo sin querer.

Coro:
   C5                           E5           E5            B5                  E5
e | -------------------------------------0----------- | ----------------------------------0--------- | 
b | -------------------------------------0----------- | ----------------------------------0--------- | 
g | .-5--5--5-5--5--5-5-5-5--5-5---------0--0-------- | ----4--4--4-4--4--4-4-4-4---------0--------. | 
D | .-5--5--5-5--5--5-5-5-5--5-5--2--2-2-2--2--2-2-2- | -2--4--4--4-4--4--4-4-4-4--2--2-2-2--2-2-2-. | 
A | --3--3--3-3--3--3-3-3-3--3-3--2--2-2----2--2-2-2- | -2--2--2--2-2--2--2-2-2-2--2--2-2----2-2-2-- | 
E | ------------------------------0--0-0-------0-0-0- | -0-------------------------0--0-0----0-0-0-- | 
    A la, la, le, le,   le le,  le   y ah.              A la, la, le, le, le le, le y ah.

(con el ritmo II)
 Este camino lo camino yo desaprendiendo todo de una vez
no por ofender a latradición pero este mundo nos educó al revés. 
Hay cosas que no entiendo bien y que el tiempo las habrá de resolver...

(con el Ritmo I y *{palm mute} )
Por eso sigo caminando hoy, cargando con mi ascento a flor de piel
las diferencias entre tu y yo son tan evidentes en papel.
Pero el hambre, la fé y la sed Siempre nos va a reconocer...  

(Con el coro) 
A la, la, le, le, le le, le y ah.
A la, la, le, le, le le, le y ah.

C5                       E5
A la, la, le, le, le le, le y ah.
B5                       C5 ,X4      D5 ,X4        E5
A la, la, le, le, le le, le       y eh  y  he he ah.
(x4 significa cuatro veces)

(Solo)

Final:
e | -------0------------2------ | ------0------------2------0- | 
b | ----------0------------3--- | ---------1------------3---0- | 
g | ----0-------0----4-------4- | ---0-------0----4-------4-0- | 
D | --------------------------- | --------------------------2- | 
A | --------------2------------ | 3------------2------------2- | 
E | -0------------------------- | --------------------------0- |  		   
AcordesyTabs.com © 2008 Acordes y Tablaturas para guitarra. Tabs and Chords for guitar. Aviso Legal - Contacto
El uso de este sitio está sujeto a la aceptación de los términos y condiciones (26 usuarios online)