tablaturas, partituras y acordes para guitarra
Busca por banda/artista:
 
y/o título de la canción:
A B C D E F G H I J K L M N O P Q R S T U V W X Y Z 0 1 2 3 4 5 6 7 8 9 / Top 100 tabs
Categorías
Usuarios
usuario:
Darse de alta
password:
Artistas más visitados
Publicidad
TOP acordes y tablaturas de Jethro tull


Estás en: Inicio > Letra J > Acordes y tablaturas de Jethro tull > With you there to help me
With you there to help me
de Jethro tull
Puntúa este acorde/tab:      
(0.3/5)
Reportar este acorde/tab
  Añadir a tus favoritos
  Imprimir
Intro:

      Em  Em7 Am  C        Em  Em7 Am  C       B      Em
e | ----0---0---0---0--- | ----0---0---0---0--- | ---2------0--- | 
B | ----0---0---1---1--- | ----0---0---1---1--- | ---4------0--- | 
G | ----0---0---2---0--- | ----0---0---2---0--- | ---4------0--- | 
D | ----2---0---2---2--- | ----2---0---2---2--- | ---4------2--- | 
A | ----------------3--- | ----------------3--- | ---2------2--- | 
E | -------------------- | -------------------- | ----------0--- | 


Verso 1:
    Em           Em/G      Em/B      Am       Am/C     Am/E    Am G Em
-----------------------------------------------------------------------
    In           days      of        peace,
    Sweet        smell-    ing       summer   nights
    Of           wine      and       song.
    Dusty        pave-     ment,     burning  feet.

Why am I         cry-      ing? I    want to  know.
How can I        smile        and    make it  right
For sixty        days         and    eighty   nights,
And not give     in           and    lose the fight?


Pré-refrão:     Em  G A  D (2x)

                F#  A B  E (2x)

                B  C# D    (2x)


Refrão:
G         A           D
I'm going back to the ones that I know
     G          C         B
With whom I can be what I want to be.
G        A            D
Just one week for the feeling to go,
         G            A               D        Em
And with you there to help me then it probably will.

Repete a introdução:

Verse 2 :
    Em           Em/G      Em/B      Am       Am/C     Am/E    Am G Em

-----------------------------------------------------------------------
    I            won't     go        down

              Acting      the       same old  play.

     Gave sixty  days    for        just one night.

Don't think I'd  make it, but I'd    bet I might.

Pré-refrão:

Refrão:

Intro:

Solo:

Refrão:

      Em  Em7 Am  C        Em  Em7 Am  C
e | ----0---0---0---0--- | ----0---0---0---0--- | 
B | ----0---0---1---1--- | ----0---0---1---1--- | 
G | ----0---0---2---0--- | ----0---0---2---0--- | 
D | ----2---0---2---2--- | ----2---0---2---2--- | 
A | ----------------3--- | ----------------3--- | 
E | -------------------- | -------------------- | 

A         B           E
I'm going back to the ones that I know
     A          D         C#
With whom I can be what I want to be.
 A       B            E
Just one week for the feeling to go,
         A            B               E        F#m
And with you there to help me then it probably will.

Solo 2: 		   
AcordesyTabs.com © 2008 Acordes y Tablaturas para guitarra. Tabs and Chords for guitar. Aviso Legal - Contacto
El uso de este sitio está sujeto a la aceptación de los términos y condiciones (73 usuarios online)