tablaturas, partituras y acordes para guitarra
Busca por banda/artista:
 
y/o título de la canción:
A B C D E F G H I J K L M N O P Q R S T U V W X Y Z 0 1 2 3 4 5 6 7 8 9 / Top 100 tabs
Categorías
Usuarios
usuario:
Darse de alta
password:
Artistas más visitados
Publicidad
TOP acordes y tablaturas de Jack johnson


Estás en: Inicio > Letra J > Acordes y tablaturas de Jack johnson > Better together
Better together
de Jack johnson
Puntúa este acorde/tab:      
(0.7/5)
Reportar este acorde/tab
  Añadir a tus favoritos
  Imprimir
intro:
e | ------------------------------------------------------------------------ | 
B | ------------------------------------------------------------------------ | 
G | ------12------10------7-------7-----7------10-------12-------10----10--- | 
D | 10/12---12----10---7-----5/7---7/10----10/12----12/10----10------ | 
A | ----------------------------------------------------------------------8- | 
E | ------------------------------------------------------------------------ | 

F                                            Dm                  C
There's no combination of words that I could put on the back of a postcard
A#                            Gm           C
No song that I could sing but I can try for your heart and
F                             Dm              C
Our dreams and they are made out of real things like a
A#                           Gm    C
shoebox of photographs and sepia-toned lovin
F                               Dm                      C
Love is the answer at least for most of the questions in my heart like
A#                                Gm                     C
why are we here? and where do we go? and how come its so hard?
F                                 Dm            C
Its not always easy and sometimes life can be decieving
A#                                  Gm                  C
I'll tell you one thing it's always better when we're together


A#               C
mmmmm its always better when we're together
A#                     C
Yeah well look at them stars when we're together
A#                      C
Well it's always better when we're together
A#                     C
Yeah its always better when we're together.

:piano solo: 
( F   Dm  C  A#  Gm  C )

            F                                    Dm           C
and all of these moments just might find their way into my dreams tonight
      A#                                     Gm           C
but I know that they'll be gone when the morning light sings 
             F               Dm            C
or brings new things, for tomorrow night you'll see
    A#                           Gm               C
that they'll be gone too too many things I have to do.
                F                               Dm          C
but if all of these dreams might find their way into my day to day scene
      A#                       Gm              C
I'd be under the impression I was somewhere in between
        F                            Dm                C
with only two, just me and you now so many things we got to do, 
    A#                           Gm                C
or places we got to be we'll sit beneath the mango tree now


A#               C
mmmmm its always better when we're together
A#                     C
mmmm we're somewhere in between together
A#                      C
Well it's always better when we're together
A#                     C
Yeah its always better when we're together.

:piano solo: 
( F   Dm  C  A#  Gm  C )
mmmm mmm mmmm mmmm mmmm


A#           C                     A#                 C
I believe in memories they look so, so pretty when I sleep, hey now and
A#            C               A#                       C
and when I wake up you look so pretty sleeping next to me but there is
A#           C            A#                   C
not enough time. there is no, no song I could sing and there is no
A#              C                            A#                   C
combination of words I could say but I will still tell you one thing

we're better together.

:Solo:
e | ----------------------------------------------------------------------- | 
B | ----------------------------------------------------------------------- | 
G | -------12------10------7-------7-----7------10-------12-------10----10- | 
D | -10/12---12----10---7-----5/7---7/10----10/12----12/10----10---- | 
A | ----------------------------------------------------------------------- | 
E | ----------------------------------------------------------------------- | 

e | -------13-------10------8------10------13------15-------13-------10--------- | 
B | -10/13----13----108---8----10/13---13/15----15/13----13/10----108/10- | 
G | ---------------------------------------------------------------------------- | 
D | ---------------------------------------------------------------------------- | 
A | ---------------------------------------------------------------------------- | 
E | ---------------------------------------------------------------------------- |  		   
AcordesyTabs.com © 2008 Acordes y Tablaturas para guitarra. Tabs and Chords for guitar. Aviso Legal - Contacto
El uso de este sitio está sujeto a la aceptación de los términos y condiciones (17 usuarios online)