tablaturas, partituras y acordes para guitarra
Busca por banda/artista:
 
y/o título de la canción:
A B C D E F G H I J K L M N O P Q R S T U V W X Y Z 0 1 2 3 4 5 6 7 8 9 / Top 100 tabs
Categorías
Usuarios
usuario:
Darse de alta
password:
Artistas más visitados
Publicidad
TOP acordes y tablaturas de Jack johnson


Belle
de Jack johnson
Puntúa este acorde/tab:      
(0.3/5)
Reportar este acorde/tab
  Añadir a tus favoritos
  Imprimir
G6

  GM7           G6              Gm7             Gm6
|---------------|---------------|---------------|---------------|
|-----3------3--|-----3-----3---|-----3------3--|-----3-----3---|
|-----4------4--|-----4----4----|-----3------3--|-----3----3----|
|-----4------4--|-----2---2---0-|-----3------3--|-----2---2---0-|
|---------------|---------------|---------------|---------------|
|-3------3-3----|-3------3------|-3------3-3----|-3------3------|

  GM7           G6              Bm7             Cm6            
|---------------|---------------|-----2------2--|-3--3---3--3---|
|-----3------3--|-----3-----3---|-----3--2---3--|-4--4---4--4---|
|-----4------4--|-----4----4----|-----2------2--|-2--2---2--2-0-|
|-----4------4--|-----2---2---0-|---------------|---------------|
|---------------|---------------|-2--------2----|------3--------|
|-3------3-3----|-3------3------|---------------|---------------|

  Am7             Am6             Am7             G#7
|---------------|---------------|---------------|---------------|
|-----5------5--|-----5-----5---|-----5------5--|-----4-----4---|
|-----5------5--|-----5----5----|-----5------5--|-----5----5----|
|-----5------5--|-----4---4---0-|-----5------5--|-----4---4---0-|
|---------------|---------------|---------------|---------------|
|-5------5-5----|-5------5------|-5------5-5----|-4------4------|

  GM7           Cm6              Am7            G#7
|---------------|-----3-----3---|---------------|---------------|
|-----3------3--|-----4----4----|-----5------5--|-----4-----4---|
|-----4------4--|-----2---2-----|-----5------5--|-----5----5----|
|-----4------4--|-------------0-|-----5------5--|-----4---4---0-|
|---------------|-3------3------|---------------|---------------|
|-3------3-3----|---------------|-5------5-5----|-4------4------|


Oi lienda 
Bella che fa? 
Bonita, bonita que tal? 
But belle 
Je ne comprend pas francais 
So you'll have to speak to me 
Some other way		   
AcordesyTabs.com © 2008 Acordes y Tablaturas para guitarra. Tabs and Chords for guitar. Aviso Legal - Contacto
El uso de este sitio está sujeto a la aceptación de los términos y condiciones (32 usuarios online)