tablaturas, partituras y acordes para guitarra
Busca por banda/artista:
 
y/o título de la canción:
A B C D E F G H I J K L M N O P Q R S T U V W X Y Z 0 1 2 3 4 5 6 7 8 9 / Top 100 tabs
Categorías
Usuarios
usuario:
Darse de alta
password:
Artistas más visitados
Publicidad
TOP acordes y tablaturas de Metallica


Estás en: Inicio > Letra M > Acordes y tablaturas de Metallica > The Unforgiven Solo
The Unforgiven Solo
de Metallica
Puntúa este acorde/tab:      
(0.6/5)
Reportar este acorde/tab
  Añadir a tus favoritos
  Imprimir
----------------------------------------------------------------------
---7b----7b-----------------------------------------------------------
---7b----7b----5------------------------------------------------------
------------------7----7b----5----------------------------------------
--------------------------------7---5/3--5--3----------------3b-------
------------------------------------------------5---3---5-------------


-----------------------------------------------------------8-----------
---------------------------------7-----7---8----7h9---10-------10------
-----------5----7---5--7--7/9-------9----------------------------------
----/7-----------------------------------------------------------------
-----------------------------------------------------------------------
-----------------------------------------------------------------------


----------10----------------------------------------------20b---20b---
-(10)10------10--------20~~~~~~~~~~---(20)-----20b--17----------------
----------------------------------------------------------------------
----------------------------------------------------------------------
----------------------------------------------------------------------
----------------------------------------------------------------------


--20b--17--17--20p17-----17------------------------10p9--7--9----9----
----------------------20----20-(20)---------------------------10------
---------------------------------------------/9-----------------------
----------------------------------------/17---------------------------
----------------------------------------------------------------------
----------------------------------------------------------------------


--------------------------------------------------12-------12-------12
---8---7---7-----------------------------------13----13-------13------
---------9----9--7/5--7--5/4---5--4--2---/14------------14-------14---
----------------------------------------------------------------------
----------------------------------------------------------------------
----------------------------------------------------------------------



--------12-------12--------12-------12-------------------------------------17--1
-13--------13-------13--------13-------13----------------------20b--20b~~~------
----14--------14-------14--------14-------14---19b---19b---17-------------------
--------------------------------------------------------------------------------
--------------------------------------------------------------------------------
--------------------------------------------------------------------------------



--20-19-17-19-17h19p17---------------------------------------
-----------------------20-------------------------------------------
----------------------------------------------------------------------
----------------------------------------------------------------------
----------------------------------------------------------------------
----------------------------------------------------------------------


that is all sorry
 tabed by Sean Coleman




		   
AcordesyTabs.com © 2008 Acordes y Tablaturas para guitarra. Tabs and Chords for guitar. Aviso Legal - Contacto
El uso de este sitio está sujeto a la aceptación de los términos y condiciones (35 usuarios online)