tablaturas, partituras y acordes para guitarra
Busca por banda/artista:
 
y/o título de la canción:
A B C D E F G H I J K L M N O P Q R S T U V W X Y Z 0 1 2 3 4 5 6 7 8 9 / Top 100 tabs
Categorías
Usuarios
usuario:
Darse de alta
password:
Artistas más visitados
Publicidad
TOP acordes y tablaturas de Metallica


Estás en: Inicio > Letra M > Acordes y tablaturas de Metallica > To Live Is To Die
To Live Is To Die
de Metallica
Puntúa este acorde/tab:      
(0.2/5)
Reportar este acorde/tab
  Añadir a tus favoritos
  Imprimir
                   MUSIC BY
           JAMES HETFIELD, LARS ULRICH, AND CLIFF BURTON   
              
          TO LIVE IS TO DIE____FROM THE ...AND JUSTICE FOR ALL  
                                ALBUM

                               
                              |INTRO|

(LET RING)        H   P 
E----------8--7--7^-10^-7-|---7-----7------------------7----10--10---10-|
B----------0--5---------7-|.--7-----7---7--------7-----7-----8--10------|
G----------0--------------|---7--7--7------7---7-------7--------11------|
D-------------------------|---9--9------9--------------9--------12-12---|
A-------------------------|.--9---------------------------------12------|
E-------------------------|---7--------------7------7-----7-----10------|
               H  P
E-------------------------0-0--12-----------------7--7-/-12---12-----12--|
B--11-----7-8-7-^8-^-7----0-0--0-------------8-8--------------12---------|
G---------7-7-7--------9--9-11-9-------------9-9--7--7-/--9---12---------|
D-----12------------------------------------------------------14-14------|
A-------------------------------------/-9-7-------------------14---------|
E----------------------------------0---------------------------0--0------|
                    H  P
E----------8--7--10-7^10^7------------|-7------7---------------------7---10-----
B--12--12--0--5---0------7----------.-|-7------7---7---------7-------7----8-----
G---9---9--0------0-------------------|-7---7--7------7----7---------7----------
D---9-------------------------------.-|-9---9------9-----------------9----------
A--10---------------------------------|-9---------------------------------------
E-------------------------------------|-7----------------7-------7------7-------
                         H  P
E-10------10----------------------0--0-12----------||
B-10-----------------7-8-7^8^7----0--0--0----------||
G-11----------11-----7-8-7-----9--9-11--9----------||
D-12--12-------------------------------------------||
A-12-------------12--------------------------------||
E-10-----------------------------------------------||


E-------------------------------------------------------------------------------
B-2------2----X--X----------3------3----X---X----3-2-----2----2--X--X--------
G-3------3----X--X----------4------4----X---X----4-3-----3----3--X--X--------
D-4------4----X--X---2--4---5------5----X---X----5-4-----4----4--X--X---2--4-
A-4------4----X--X---2--4---5------5----X---X----5-4-----4----4--X--X---2--4-
E-2------2-----------0--2---3------3-------------3-2-----2----2---------0--2-
              P.M.----------------------------------|  PM.    PM    PM   PM     
E---------||--------------------------------------------------------------------
B--32----||--------------------------------------------------------------------
G--43----||--------------------------------------------------------------------
D--54----||----------------------------------%---------------------------------
A--54----||--4-4-4--5-5-5-4--4-4-7--7-7------%---------4---5--4--7--4--5--4-7--
E--32----||--2-2-2--3-3-3-2--2-2-5--5-5------%---------2---3--2--5--2--3--2-5--
                                                                                
E-------------------------------------------------------------------------------
B---2---2---X-X--------3--3--X-X---3-2---2---2--X-X---------5----5-----5-3-3
G---3---3---X-X--------4--4--X-X---4-3---3---3--X-X---------6----6--X--6-4-4
D---4---4---X-X--2--4--5--5--X-X---5-4---4---4--X-X---2-4---7----7--X--7-5-5
A---4---4---X-X--2--4--5--5--X-X---5-4---4---4--X-X---2-4---7----7-----7-5-5
E---2---2--------0--2--3--3--------3-2---2---2--------0-2---5----5-----5-3-3


         P.M.----------------------------------|  PM.    PM    PM   PM       PM-
E---------------------------------------------------------------------------|---
B---------------------------------------------------------------------------|---
G---------------------------------------------------------------------------|---
D----------------------------------------%----------------------------------|---
A--------4-4-4--5-5-5-4--4-4-7--7-7------%---------4---5--4--7--4--5--4-7---|---
E--------2-2-2--3-3-3-2--2-2-5--5-5------%---------2---3--2--5--2--3--2-5---|-2-

E-------------------------------------------------------|
B-------------------------------------------------------|
G--11----6------4--6-----7--4----4--6--6---3--3--2---|
D-------------------------------------------------------|
A---9----4------2--4-----5--2----2--4--4---1--1--0---|
E-------------------------------------------------------|
 
    PM--|      PM             PM                PM 
E------------------------------------------------------------------------|
B------------------------------------------------------------------------|
G----------------------------------------2------------------------------|
D---------2--------5--4--2---------------2------------X-X--6--5--4------|
A--4--4---0----4---3--2--0---4-----------0-------4----X-X--4--3--2------|
E--2--2--------2-------------2-------------------2----X-X---------------|


    PM--|      PM             PM                PM 
E------------------------------------------------------------------------|
B------------------------------------------------------------------------|
G-----------------------------------------2------------------------------|
D---------2--------5--4--2-------X-X-X----2------------X-X--6--5--4------|
A--4--4---0----4---3--2--0---4---X-X-X----0-------4----X-X--4--3--2------|
E--2--2--------2-------------2---X-X-X------------2----X-X---------------|
                                                  H P     H P 
E----)----------)-------------)-------------------------------------------|
B--5---2------6---3---------5---2-----------------------------------------|
G-----------------------------------------2-2----2^4^21--1^2^1-----------|
D---------4-----------5------------4---4-------------------------4--------|
A-------------------------------------------------------------------------|
E-------------------------------------------------------------------------|

         P.M.----------------------------------|  PM.    PM    PM   PM       PM-
E---------------------------------------------------------------------------|---
B---------------------------------------------------------------------------|---
G---------------------------------------------------------------------------|---
D----------------------------------------%----------------------------------|---
A--------4-4-4--5-5-5-4--4-4-7--7-7------%---------4---5--4--7--4--5--4-7---|---
E--------2-2-2--3-3-3-2--2-2-5--5-5------%---------2---3--2--5--2--3--2-5---|-2-
 

                       |SOLO|

E------)---------------------------------------------------------)--------------
B---16--------------------------------------------------------17----17-16-14----
G---16--------------------14-16-16-16--16-16-X-14--16-16-14------------------16-
D-------------------------------------------------------------------------------
A-------------------------------------------------------------------------------
E-------------------------------------------------------------------------------


I'LL FINISH THE REST LATER ITS TOO LATE RIGHT NOW I'LL POST THE REST OF THE SOLO
      *FLICK TOGGLE SWITCH                                       
		   
AcordesyTabs.com © 2008 Acordes y Tablaturas para guitarra. Tabs and Chords for guitar. Aviso Legal - Contacto
El uso de este sitio está sujeto a la aceptación de los términos y condiciones (32 usuarios online)