tablaturas, partituras y acordes para guitarra
Busca por banda/artista:
 
y/o título de la canción:
A B C D E F G H I J K L M N O P Q R S T U V W X Y Z 0 1 2 3 4 5 6 7 8 9 / Top 100 tabs
Categorías
Usuarios
usuario:
Darse de alta
password:
Artistas más visitados
Publicidad
TOP acordes y tablaturas de Dalevuelta


Gracias
de Dalevuelta
Puntúa este acorde/tab:      
(0.7/5)
Reportar este acorde/tab
  Añadir a tus favoritos
  Imprimir
Intro

 | ---------------------------- | 
 | ---------------------------- | 
 | ---------------------------- | 
 | -----10-11-10--8-10-11-10-8- | 
 | -11------------------------- | 
 | ---------------------------- | 

 | ------------------------------ | 
 | ------------------------------ | 
 | ----------------------8------- | 
 | ----10-11-10--8-10-11---11-10- | 
 | -8---------------------------- | 
 | ------------------------------ | 

 | --------------------------------- | 
 | --------------------------------- | 
 | --------------------------------- | 
 | -11--11-13-11--10-11-13--11-10-8- | 
 | --------------------------------- | 
 | --------------------------------- | 

1°                           2°
 | --------------------------- |  | ----------------- | no se
 | --------------------------- |  | ----------------- | la nota exacta
 | -8--8-10-12--10-8--10-8---- |  | -8--8-10-12/----- | para desliar
 | ------------------------11- |  | ----------------- | saquenla uds.
 | --------------------------- |  | ----------------- | 
 | --------------------------- |  | ----------------- | 


G#5                    F5
Les scribi una cancion
                    C#5
Resucite una ilucion
                       D#5
Por ellos stoy viviendo
                         G#5
la historia de un soñador
                   F5
Me regalaron el don
                     C#5
Y me acercaron a dios
                    D#5
Edificaron mis bases
                     G#5  F5
Y me sembraron mi amor


C#5                       D#5
Amor de padres y en mi alma
                G#5  F5
Sus nombres y yo
C#5                           D#5
Por siempre en ellos les regalo mis sueños


G#5                 F5
Hoy una lagrima vio
                       C#5
Los dulces rayos del sol
                     D#5
A recordado nostalgia
                   G#5
El dia en que nacio
                    F5
Me recibieron los dos
                  C#5
Guardaron mi corazon
                      D#5
Y me enceñaron al tiempo
                       G#5  F5
Que devo hacer y que nooo...


C#5                       D#5
Amor de padres y en mi alma
                G#5  F5
Sus nombres y yo
C#5                           D#5
Por siempre en ellos les regalo mis sueños



Solo  G#5-F5-C#5-D#5

 | -----11-------- | 
 | --------14-13-- | 
 | -13------------ |  (x2)
 | --------------- | 
 | --------------- | 
 | --------------- | 

 | -----11-------------------- | 
 | --------14-13-11--11-13-14- | 
 | -13------------------------ | 
 | --------------------------- | 
 | --------------------------- | 
 | --------------------------- | 

 | ---------------- | 
 | -13-11-14-13---- | 
 | -------------13- | 
 | ---------------- | 
 | ---------------- | 
 | ---------------- | 


G#5                F5
Un homenaje al pensar

Ver el silencio
           C#5
Hacia atras aquellos dias
      D#5
De niño cuando me vieron llorar
G#5                F5
Tivueron la volutad las ganas
            C#5
De continuar alimentando
   D#5
Mi vida con una sonria mas
G#5                 F5
Hoy me entregaron la
                            C#5
La flor que coseche con temor
                     D#5
En un momento que tuve
                      G#5  F5
Que dar la cara al dolor
C#5
La luz se enciende y
          D#5              G#5  F5
Estrechamos el lazo que hoy
C#5
Nos da bondad y yo
      D#5                     G#5
Por siempre las gracias le doy

Ahora esta mejor no creen xD
No es tan tranca 		   
AcordesyTabs.com © 2008 Acordes y Tablaturas para guitarra. Tabs and Chords for guitar. Aviso Legal - Contacto
El uso de este sitio está sujeto a la aceptación de los términos y condiciones (22 usuarios online)