tablaturas, partituras y acordes para guitarra
Busca por banda/artista:
 
y/o título de la canción:
A B C D E F G H I J K L M N O P Q R S T U V W X Y Z 0 1 2 3 4 5 6 7 8 9 / Top 100 tabs
Categorías
Usuarios
usuario:
Darse de alta
password:
Artistas más visitados
Publicidad
TOP acordes y tablaturas de Metallica


Estás en: Inicio > Letra M > Acordes y tablaturas de Metallica > Tuesdays Gone
Tuesdays Gone
de Metallica
Puntúa este acorde/tab:      
(0.5/5)
Reportar este acorde/tab
  Añadir a tus favoritos
  Imprimir
Metallica 

Tuesdays Gone

Tuned down 1/2 a step

Im not sure if this is 100% right but its sounds ok, just improvise a bit and it

Intro

E|--9--10--9--9--7--9--7--7--5-7p5----5--5h7--5h7--5-------9--10--9--9--7--9p7--
B|---------------------------------7--------------------------------------------
G|------------------------------------------------------------------------------
D|------------------------------------------------------------------------------
A|------------------------------------------------------------------------------
E|------------------------------------------------------------------------------

E|------------------------------------------------------------------------------
B|------------------------------------------------------------------------------
G|--4^6--4^6--4^6--2--4^6--4^6--4^6-----4^6--4^6--4^6-----2---------------------
D|-----------------------------------2-----------------4-------------------2h4--
A|-------------------------------------------------------------5p4h5--2h4-------
E|------------------------------------------------------------------------------

E|---------------------------------------|----0---------0---------0-------------
B|--5----5----5----------5--5----5----5--|-------3---------3---------3----------
G|--4^6--4^6--4^6--2-----4--4^6--4^6--4--|-----------------------------------4^6
D|--------------------2------------------|-0---------0---------0----------------
A|---------------------------------------|--------------------------------------
E|---------------------------------------|--------------------------------------

The chords are

Verse 

A, E, F#m, D 
A, E, D, then end of intro

Chorus

A, G, D
A, E, D


Hope it helps

Fredrik

		   
AcordesyTabs.com © 2008 Acordes y Tablaturas para guitarra. Tabs and Chords for guitar. Aviso Legal - Contacto
El uso de este sitio está sujeto a la aceptación de los términos y condiciones (27 usuarios online)