tablaturas, partituras y acordes para guitarra
Busca por banda/artista:
 
y/o título de la canción:
A B C D E F G H I J K L M N O P Q R S T U V W X Y Z 0 1 2 3 4 5 6 7 8 9 / Top 100 tabs
Categorías
Usuarios
usuario:
Darse de alta
password:
Artistas más visitados
Publicidad
TOP acordes y tablaturas de Charly garcÍa


Mr. jones
de Charly garcÍa
Puntúa este acorde/tab:      
(0.3/5)
Reportar este acorde/tab
  Añadir a tus favoritos
  Imprimir
Es 100% correcta...

Intro: D / A / B
(abajo se explican los Riff)
         Riff A
Mr. jones abrió la puerta
         Riff B
Vió a su madre recien muerta
     EE DD C#C# BB                  AAC#E
y la sangre en el chaleco se limpio


         Riff A
Guardó a su madre en el ropero
         Riff B
le puso mas leña al fuego
     EE DD C#C# BB                  AAC#E
y el invierno muy crudo se avesino


             D
Llamó a su esposa y le dijo
            A
mamá esta muerta en el ropero
      B                    E
por supuesto si yo la asesiné


RIFF A:
parte desde la 3er cuerda (o sea LA)
------------------------------------- | 
-----------2-2-4-2------------------- | 
---0-0-4-4--------------------------- | 
------------------------------------- | 
RIFF B:
Parte desde SI en la 3er cuerda
---------------1--------------------- | 
-------1-1-4-4---4------------------- | 
---2-2------------------------------- | 
------------------------------------- |  		   
AcordesyTabs.com © 2008 Acordes y Tablaturas para guitarra. Tabs and Chords for guitar. Aviso Legal - Contacto
El uso de este sitio está sujeto a la aceptación de los términos y condiciones (39 usuarios online)