tablaturas, partituras y acordes para guitarra
Busca por banda/artista:
 
y/o título de la canción:
A B C D E F G H I J K L M N O P Q R S T U V W X Y Z 0 1 2 3 4 5 6 7 8 9 / Top 100 tabs
Categorías
Usuarios
usuario:
Darse de alta
password:
Artistas más visitados
Publicidad
TOP acordes y tablaturas de Zen


Estás en: Inicio > Letra Z > Acordes y tablaturas de Zen > Memoria
Memoria
de Zen
Puntúa este acorde/tab:      
(0.6/5)
Reportar este acorde/tab
  Añadir a tus favoritos
  Imprimir
 Intro y Coro

 E-----------------------------------------------------------------------------
 B-----------------------------------------------------------------------------
 G-(9/5)------88-10101010-------55-10101010------88-10101010-------55-10101010-
 D-(9/5)-3(0)-88-xxxxxxxx-33(0)-55-xxxxxxxx-3(0)-88-xxxxxxxx-33(0)-55-xxxxxxxx-
 A-(7/3)-3(0)-66-8-8-8-8--33(0)-33-8-8-8-8--3(0)-66-8-8-8-8--33(0)-33-8-8-8-8--
 E-------1(0)-------------11(0)-------------1(0)-------------11(0)-------------
                                                                    (repetir)



 Estrofa

 E--------------------------------------------------------
 B---------------11----11--11----------------11----11--11-
 G-12----12--12----------------12----12--12---------------  (repetir)
 D-----10--10--------10--10--------10--10--------10--10---
 A--------------------------------------------------------
 E--------------------------------------------------------




 Solo  (2da guitarra DO5)

 E------------------------------------------
 B------------------------------------------
 G-----3---<5>--3----------3---<5>--3-------  (repetir)
 D--3-5-5-3----5-5-3-5--3-5-5-3----5-5-3-5--
 A-3----------3--------3----------3---------
 E------------------------------------------

 E-------------------------------------------------------------------
 B--------11-----<13>----11----------------11-----<13>----11---------
 G---10-12--12-10------12--12-10-12---10-12--12-10------12--12-10-12- (repetir)
 D-10----------------10-------------10----------------10-------------
 A-------------------------------------------------------------------
 E-------------------------------------------------------------------






 Es todo ya q los coros y estrofas son iguales

 Acorde final DO5		   
AcordesyTabs.com © 2008 Acordes y Tablaturas para guitarra. Tabs and Chords for guitar. Aviso Legal - Contacto
El uso de este sitio está sujeto a la aceptación de los términos y condiciones (97 usuarios online)